PrimaNota.ru - самый крупный в мире бесплатный архив песенных текстов, аккордов, табулатур и нот


Datsuns - What Ive Lost - таба, видео

Регистрация Запомнить меня
Войти через:  Facebook Google Twitter Vk Yandex Mail.ru

Datsuns - What Ive Lost - таба, видео

Печатать
Просмотров: 119
Авторы музыки: Matt Osment, Christian Livingstone, Rudolf de Borst, Philip Somervell
Авторы текста: The Datsuns
What I've lost

by the datsuns

tab by jesús arellano

intro guitar 1:

e-----------------------------------------------------------------|
B--15\13-13-13-13\10-10-10----9----10-10-\-8--8-8--8\6--6-6---5---|
G--14\12-12-12-12\9--9--9---9---9--9--9--\-7--7-7--7\5--5-5-5---5-|
D-----------------------------------------------------------------|
A-----------------------------------------------------------------|
E-----------------------------------------------------------------|

e------------------------------------------------------------------------|
B--10-10-/-13--13-13-13-\-10--10--10---9----15-15-/-18-18-18--18-\-15-15-|
G--9--9--/-12--12-12-12-\-9---9---9--9---9--14-14-/-17-17-17--17-\-14-14-|
D------------------------------------------------------------------------|
A------------------------------------------------------------------------|
E------------------------------------------------------------------------|

e-------------------|
B-------------------|
G--12h14p12---------|
D------------14-----|
A----------------15-|
E-------------------|

guitar 2: play Am E F C

verse:

guitar 1:
e--5--7--8---8--|
B--5--9--10--8--|
G--5--9--10--9--|
D--7--9--10--10-| (x2)
A--7--7--8---10-|
E--5--7--8---8--|

guitar 2:

e--0--0--1--0--|
B--1--0--1--1--|
G--2--1--2--0--|
D--2--2--3--2--| (x2)
A--0--2--3--3--|
E-----0--1-----|

guitar 1:

e----5------------------------------------------------|
B------5-----------9----------10-------------8--------|
G--------5-----------9-----------10------------9------|
D--7-------------------9------------10------------10--| (x2)
A---------------11--------12-------------10-----------|
E-----------------------------------------------------|

e--5---------0--------------7-------------------------|
B--6-----------1------------9-------------------------|
G--7-------------2----------9-------------------------|
D--7---------------2--------9----7--9--10-10-/-14--12-|
A--5------0-----------------7-------------------------|
E---------------------------7-------------------------|

e-----0-----------------------------------------|
B-------1---------------------7-----------------|
G---------2-------------------------------------|
D-----------2-----------7--9------14--12--10--9-|
A--0-----------------9--------------------------|
E-----------------7-----------------------------|

guitar 2: play chords Am E F C

                      Dm Am  E Am  Dm Am B E


intro

verse

solo: (x4)

e--------12--13--12---------12----------------------------------------------|
B-----13------------13---12----12---------------13--15--13---------13-------|
G--14------------------------------13--------14------------14--12------12---|
D----------------------------------------15------------------------------14-|
A---------------------------------------------------------------------------|
E---------------------------------------------------------------------------|

e-----
B-----
G-----
D-----
A--12-
E-----

guitar 2:

Am E F C

bridge:

guitar 1:

e--5------5---------10---5-----------------------------------10-|
B--5--10--5-----9--------5------10-----10-/-12-\-10------9------|
G--5--10--5-------7------5---------10--10-/-12-\-10--------7----|
D--7--10--7---9----------7---/10-------10-/-12-\-10---9---------|
A--7--9---7--------------7--------------------------------------|
E--5------5--------------5--------------------------------------|

e------------------------|
B------------------------|
G------------------------|
D--7--9--10--10-/-14--12-|
A------------------------|
E------------------------|

guitar 2:

Am F Am E   Am F  E


solo: (x2)

e--------12--13--12---------12----------------------------------------------|
B-----13------------13---12----12---------------13--15--13---------13-------|
G--14------------------------------13--------14------------14--12------12---|
D----------------------------------------15------------------------------14-|
A---------------------------------------------------------------------------|
E---------------------------------------------------------------------------|


part II

e-------------------------------------------15b17r15--12h13p12--------|
B--15b17r15--13-----15b17r15--12--------13---------------------13-----|
G---------------14---------------13--14----------------------------12-|
D---------------------------------------------------------------------|
A---------------------------------------------------------------------|
E---------------------------------------------------------------------|

e-------------------------------------------15b17r15--12h13p12------------|
B--15b17r15--13-----15b17r15--12--------13-----------------------13-------|
G---------------14---------------13--14--------------------------------12-|
D-------------------------------------------------------------------------|
A-------------------------------------------------------------------------|
E-------------------------------------------------------------------------|

e--------------------|
B--15---13---12------|
G-----------------14-|
D--------------------|
A--------------------|
E--------------------|

guitar 2: play Am E F C  end Am

uhuh!!
Добавлено: 17.06.2012
Другие материалы по этой песне:
  • Аккорды и текст

Страница создана 17.06.2012
http://primanota.ru/datsuns/what-ive-lost-chords.htm
Привет, Гость.
Предлагаем пройти революционный курс по гитаре.
Подарок от PrimaNota.Ru, забирай!