PrimaNota.ru - самый крупный в мире бесплатный архив песенных текстов, аккордов, табулатур и нот


Datsuns - System Overload - таба, видео

Регистрация Запомнить меня
Войти через:  Facebook Google Twitter Vk Yandex Mail.ru

Datsuns - System Overload - таба, видео

Печатать
Просмотров: 133
Авторы музыки: The Datsuns
Авторы текста: The Datsuns
//VERSE\\
E|-----------------|
B|-----------------|
G|-----------------|
D|-8-8---8-8---8-8-|
A|-8-8---8-8---8-8-|
E|-6-6---6-6---6-6-|


//CHORUS\\

Countdown to explode system overload.......overload...

E|--------------------------------------|
B|--------------------------------------|
G|--8--8--------------------------------|
D|--8--8------4--4------8--8------8--8--|
A|--6--6------4--4------8--8------8--8--|
E|------------2--2------6--6------6--6--|


E|---------------------------------|
B|---------------------------------|
G|--8--8---------------------------|
D|--8--8------4--4----8--8------6--|
A|--6--6------4--4----8--8------6--|
E|------------2--2----6--6------4--|


//VERSE\\

//CHORUS\\


E|--------------------------------------|
B|--------------------------------------|
G|--8--8--------------------------------|
D|--8--8------4--4------8--8------8--8--|
A|--6--6------4--4------8--8------8--8--|
E|------------2--2------6--6------6--6--|


E|---------------------------------------------|
B|---------------------------------------------|
G|--8--8---------------------------------------|
D|--8--8------4--4----8--8------6---6-5-6-7-8--|
A|--6--6------4--4----8--8------6---6-5-6-7-8--|
E|------------2--2----6--6------4---4-3-4-5-6--|

//SOLO\\

Lead Guitar



E|--16b18--16--13-----------------13------------------|
B|-----------------15--15b16--15------15--------------|
G|----------------------------------------13/15--15v--|
D|----------------------------------------------------|
A|----------------------------------------------------|
E|----------------------------------------------------|


E|---------------------------------------------------------|
B|---------------------------------------------------------|
G|------10------10--12b13--12--10--------------------------|
D|--12------12---------------------12--12b13--12-----------|
A|------------------------------------------------11--13v--|
E|---------------------------------------------------------|

E|---------------------------------------|
B|---------------------------------------|
G|---------------------7--8/10--13-------|
D|-------------6----8--------------------|
A|-----5--6/8----------------------------|
E|--6------------------------------------|


E|---------------------------------------------------------------------------|
B|--15--16--15--18--15--16--15--18--15--16--15--18--15--16--15---------------|
G|--------------------------------------------------------------15------15v--|
D|------------------------------------------------------------------15-------|
A|---------------------------------------------------------------------------|
E|---------------------------------------------------------------------------|

E|----------------16b18--13----------------------|
B|---------------------------15--15b16-----------|
G|--12v----11v--------------------------13--15v--|
D|-----------------------------------------------|
A|-----------------------------------------------|
E|-----------------------------------------------|



E|--------------------------8--11--13v--|
B|----------------------10--------------|
G|--8v----6v--5--8--10------------------|
D|--------------------------------------|
A|--------------------------------------|
E|--------------------------------------|




Rhythm Guitar

Half the solo i s just A# powerchord, then it moves to the CHORUS patern.


E|--------------------------------------|
B|--------------------------------------|
G|--8--8--------------------------------|
D|--8--8------4--4------8--8------8--8--|
A|--6--6------4--4------8--8------8--8--|
E|------------2--2------6--6------6--6--|


it changes a bit here
E|--------------------------------------|
B|--------------------------------------|
G|--8--8--------------------------------|
D|--8--8------4--4------3--3------3--3--|
A|--6--6------4--4------3--3------3--3--|
E|------------2--2------1--1------1--1--|



//CHORUS\\

E|--------------------------------------|
B|--------------------------------------|
G|--8--8--------------------------------|
D|--8--8------4--4------8--8------8--8--|
A|--6--6------4--4------8--8------8--8--|
E|------------2--2------6--6------6--6--|


E|---------------------------------------------|
B|---------------------------------------------|
G|--8--8---------------------------------------|
D|--8--8------4--4----8--8------6---6-5-6-7-8--|
A|--6--6------4--4----8--8------6---6-5-6-7-8--|
E|------------2--2----6--6------4---4-3-4-5-6--|




That is all, hope you enjoy the tab, rate and comment !
Добавлено: 25.08.2013
Другие материалы по этой песне:
  • Аккорды и текст

Страница создана 25.08.2013
http://primanota.ru/datsuns/system-overload-chords.htm
Привет, Гость.
Предлагаем пройти революционный курс по гитаре.
Подарок от PrimaNota.Ru, забирай!