PrimaNota.ru - самый крупный в мире бесплатный архив песенных текстов, аккордов, табулатур и нот


Datsuns - Such A Pretty Curse - таба, видео

Регистрация Запомнить меня
Войти через:  Facebook Google Twitter Vk Yandex Mail.ru

Datsuns - Such A Pretty Curse - таба, видео

Печатать
Просмотров: 90
Авторы музыки: The Datsuns
Авторы текста: The Datsuns
MAIN RIFF
                                        repeat, then
E|--------------------------------------|            E|----------------|
B|--------------------------------------|            B|----------------|
G|--------------------------------------|            G|--5--5-x--------|
D|--------------------------------------|            D|--5--5-x--5--5--|
A|--------------6--5--------------6--5--|            A|--3--3-x--5--5--|
E|--5--5--5--3--------5--5--5--3--------|            E|----------3--3--|



VERSE
                       x2
E|--5----3----5----3--|
B|--5----3----5----3--|
G|--6----4----6----4--|
D|--7----5----7----5--|
A|--7----5----7----5--|
E|--5----3----5----3--|



CHORUS

Voices in my head...                       Check the song for the strumming
E|----------------------------------------|
B|----------------------------------------|
G|--7---------7---------7---------5-------|
D|--7----7----7----7----7----7----5----2--|
A|--5----7----5----7----5----7----3----2--|
E|-------5---------5---------5---------0--|


MAIN RIFF


VERSE



CHORUS


MAIN RIFF


SOLO

Lead Guitar
E|------5-5-5-5-5-5-5-5------/5v-/9v-----5-5-5-5-5-5-5-5-/7v-/10v-|
B|-/6v--5-5-5-5-5-5-5-5--/6v---------/6v-5-5-5-5-5-5-5-5----------|
G|----------------------------------------------------------------|
D|----------------------------------------------------------------|
A|----------------------------------------------------------------|
E|----------------------------------------------------------------|

E|-/15b17v--20b22--20-19-17----14-15b16b15------------------|
B|--------------------------15--------------13-12-13-12-10v-|
G|----------------------------------------------------------|
D|----------------------------------------------------------|
A|----------------------------------------------------------|
E|----------------------------------------------------------|


Rhythm Guitar                        x2
E|-----------------------------------   ends on E|-----|
B|-----------------------------------           B|-----|
G|-------------------------------7---           G|-----|
D|---3---7---3---7---3---7---5---7---           D|--7--|
A|---3---7---3---7---3---7---5---5---           A|--7--|
E|---1---5---1---5---1---5---3-------           E|--5--|


CHORUS


MAIN RIFF meltdown

you can hear in the back
                     x2
E|-------------------   ------|
B|-------------------   ------|
G|--2----5----7----9-   ---9--|
D|--x----x----x----x-   ---x--|
A|--0----3----5----7-   ---7--|
E|-------------------   ------|


Please rate the tab and comment if there's any problem or even if there's none, i hope 
it's easy to understand,enjoy!
Добавлено: 17.03.2012
Другие материалы по этой песне:
  • Аккорды и текст

Страница создана 17.03.2012
http://primanota.ru/datsuns/such-a-pretty-curse-chords.htm
Привет, Гость.
Предлагаем пройти революционный курс по гитаре.
Подарок от PrimaNota.Ru, забирай!