PrimaNota.ru - самый крупный в мире бесплатный архив песенных текстов, аккордов, табулатур и нот


Datsuns - Hole In Your Head - таба, видео

Регистрация Запомнить меня
Войти через:  Facebook Google Twitter Vk Yandex Mail.ru

Datsuns - Hole In Your Head - таба, видео

Печатать
Просмотров: 70
Уроки эстрадного вокала в Санкт-Петербурге
INTRO


E|-----------5---------------5---------------5-------------5-----|
B|---5-8-5-8---8-5---5-8-5-8---8-5---5-8-5-8---8---5-8-5-8---8-5-|
G|---------------------------------------------------------------|
D|-7---------------7---------------7-------------7---------------|
A|---------------------------------------------------------------|
E|---------------------------------------------------------------|


Drums and bass kick in

Rhythm Guitar

E|--------------------------------------------------------------------|
B|--------------------------------------------------------------------|
G|------------------5-5-5-5-5-5-5-5-----------------------------------|
D|-7-7-7-7-7-7-7-7--5-5-5-5-5-5-5-5--5-5-5-5-5-5-5-5--7-7-7-7-7-7-7-7-|
A|-7-7-7-7-7-7-7-7--3-3-3-3-3-3-3-3--5-5-5-5-5-5-5-5--7-7-7-7-7-7-7-7-|
E|-5-5-5-5-5-5-5-5-------------------3-3-3-3-3-3-3-3--5-5-5-5-5-5-5-5-|

Lead Guitar

E|-----------5------------5-8-5-----------------5-----------5-8-5-----|
B|---5-8-5-8---8-5----5-8-------8-5----5-8-5-8----8-5---5-8-------8-5-|
G|--------------------------------------------------------------------|
D|-7----------------7----------------7----------------7---------------|
A|--------------------------------------------------------------------|
E|--------------------------------------------------------------------|


\\\\\
VERSE
/////

E|------------------------------------------------------------------------|
B|------------------------------------------------------------------------|
G|-------------------5----------------------------------------------------|
D|-7-----------------5------------------5-----------------7---------------|
A|-7-----------------3-3-3-3-3-3-3-3----5-----------------7---------------|
E|-5-5-5-5-5-5-5-5----------------------3-3-3-3-3-3-3-3---5-5-5-5-5-5-5-5-|


\\\\\\
CHORUS
//////

Rhythm Guitar
E|-------------------------------------------------------------------|
B|-------------------------------------------------------------------|
G|-------------------------------------------------------------------|
D|-3-3-3-3-3-3-3-3--5-5-5-5-5-5-5-5--7-7-7-7-7-7-7-7-7-7-7-7-7-7-7-7-|
A|-3-3-3-3-3-3-3-3--5-5-5-5-5-5-5-5--7-7-7-7-7-7-7-7-7-7-7-7-7-7-7-7-|
E|-1-1-1-1-1-1-1-1--3-3-3-3-3-3-3-3--5-5-5-5-5-5-5-5-5-5-5-5-5-5-5-5-|

Lead Guitar
E|-----------5------------5-8-5-----------------5-----------5-8-5-----|
B|---5-8-5-8---8-5----5-8-------8-5----5-8-5-8----8-5---5-8-------8-5-|
G|--------------------------------------------------------------------|
D|-7----------------7----------------7----------------7---------------|
A|--------------------------------------------------------------------|
E|--------------------------------------------------------------------|

E|-----------5------------5-8-5-----------------5--------|
B|---5-8-5-8---8-5----5-8-------8-5----5-8-5-8----8-5----|
G|-------------------------------------------------------|
D|-7----------------7----------------7----------------7--|
A|-------------------------------------------------------|
E|-------------------------------------------------------|


\\\\\
VERSE
/////

The sesond time this Lead comes in


E|-----5--5\3/5-----5--5\3/5-----5--5\3/5-----5--5\3/5--|
B|------------------------------------------------------|
G|------------------------------------------------------|
D|--7------------7------------7------------7------------|
A|------------------------------------------------------|
E|------------------------------------------------------|


\\\\\\
CHORUS
//////


Rhythm Guitar
E|-------------------------------------------------------------------|
B|-------------------------------------------------------------------|
G|-------------------------------------------------------------------|
D|-3-3-3-3-3-3-3-3--5-5-5-5-5-5-5-5--7-7-7-7-7-7-7-7-7-7-7-7-7-7-7-7-|
A|-3-3-3-3-3-3-3-3--5-5-5-5-5-5-5-5--7-7-7-7-7-7-7-7-7-7-7-7-7-7-7-7-|
E|-1-1-1-1-1-1-1-1--3-3-3-3-3-3-3-3--5-5-5-5-5-5-5-5-5-5-5-5-5-5-5-5-|

Lead Guitar
E|-----------5------------5-8-5-----------------5-----------5-8-5-----|
B|---5-8-5-8---8-5----5-8-------8-5----5-8-5-8----8-5---5-8-------8-5-|
G|--------------------------------------------------------------------|
D|-7----------------7----------------7----------------7---------------|
A|--------------------------------------------------------------------|
E|--------------------------------------------------------------------|


Then it changes from the first CHORUS

Rhythm Guitar
E|--------------------------------------|
B|--------------------------------------|let ring
G|-----------------------------------7~-|
D|-3-3-3-3-3-3-3-3--5-5-5-5-5-5-5-5--7~-|
A|-3-3-3-3-3-3-3-3--5-5-5-5-5-5-5-5--5~-|
E|-1-1-1-1-1-1-1-1--3-3-3-3-3-3-3-3-----|



E|--------------------------------------------|
B|--------------------------------------------|
G|-10-10-10----12------7~---10-10-10----12-9--|
D|-10-10-10-10-12-7~---7~---10-10-10-10-12-9--|
A|-8--8--8--10-10-7~---5~---8--8--8--10-10-7--|
E|----------8-----5~-----------------8--------|


SOLO

Lead Guitar
E|-15-12-15-12-15-12-15-12-------------------|
B|-------------------------15b17-15-13-------|
G|-------------------------------------14v---|
D|-------------------------------------------|
A|-------------------------------------------|
E|-------------------------------------------|


E|-----------------------------------------|
B|--13--15b17--15b17--15--13---------------|
G|----------------------------14--12--14v--|
D|-----------------------------------------|
A|-----------------------------------------|
E|-----------------------------------------|


E|--------------------------------------------| check the song
B|--------------------------------------------| for the strumming
G|-14----17----16-----19-----17-----16-----14-|
D|--x-----x-----x------x------x------x------x-|
A|-12----15----14-----17-----15-----14-----12-|
E|--------------------------------------------|

E|-------17-------------------10--------|
B|-15/17----15\13--------8b10----10b8---|
G|----------------14------------------9-|
D|--------------------------------------|
A|--------------------------------------|
E|--------------------------------------|


E|------------------------15-17-20--|b
B|-3v//////////////////17-----------|
G|----------------------------------|
D|----------------------------------|
A|----------------------------------|
E|----------------------------------|


Rhythm Guitar

E|--------------------------------------------------------------------|
B|--------------------------------------------------------------------|
G|------------------5-5-5-5-5-5-5-5-----------------------------------|
D|-7-7-7-7-7-7-7-7--5-5-5-5-5-5-5-5--5-5-5-5-5-5-5-5--7-7-7-7-7-7-7-7-|
A|-7-7-7-7-7-7-7-7--3-3-3-3-3-3-3-3--5-5-5-5-5-5-5-5--7-7-7-7-7-7-7-7-|
E|-5-5-5-5-5-5-5-5-------------------3-3-3-3-3-3-3-3--5-5-5-5-5-5-5-5-|


Ends with

             repeat as needed
E|------------- then     -------|
B|-------------          -------|
G|-7-7-7-7-7---          -------|
D|-7-7-7-7-7---          ----7~-|
A|-5-5-5-5-5---          ----7~-|
E|-------------          ----5~-|



E|-------------------------------------------------------|
B|-------------------------------------------------------|
G|-------------------------------------------------------|
D|----------------------------5--7--7--7--7--7--7--5--7--|
A|--7--5--3------2------------5--7--7--7--7--7--7--5--7--|
E|------------------3--0------3--5--5--5--5--5--5--3--5--|



\\\\\\
CHORUS
//////


E|-----------------------------------------------------------| repeat until
B|-----------------------------------------------------------| the end
G|-----------------------------------------------------------|
D|-----------------------------------------------------------|
A|--0--0--0--0--0--0--0--0/12--12--12--12--12--12--12--12----|
E|-----------------------------------------------------------|
Добавлено: 29.11.2013
Другие материалы по этой песне:
  • Аккорды и текст

Страница создана 29.11.2013
http://primanota.ru/datsuns/hole-in-your-head-chords.htm
Привет, Гость.
Предлагаем пройти революционный курс по гитаре.
Подарок от PrimaNota.Ru, забирай!