PrimaNota.ru - самый крупный в мире бесплатный архив песенных текстов, аккордов, табулатур и нот


Datsuns - Harmonic Generator - аккорды и текст, таба, видео

Регистрация Запомнить меня
Войти через:  Facebook Google Twitter Vk Yandex Mail.ru

Datsuns - Harmonic Generator - аккорды и текст, таба, видео

Печатать
Просмотров: 185
Авторы музыки: The Datsuns
Авторы текста: The Datsuns
Harmonic Generator
Datsuns
Author/Artist: The Datsuns
Title: Harmonic Generator (Solo)
Album: The Datsuns
Transcribed by: Richard Andrew Harry Beddington (Beddo)
E-Mail: Beddo6@aol.com

Other people have done the chords so here is the solo.

Standard Tuning

-|----------------------------------------------------------------------------
-|----------------------------------------------------------------------------
-|---------------------------------------------------------------15-13--------
-|---------------------------------------------------------15-15-------15-13--
-|-13----16-16---13-12^-13--16-15-14-13-16---16-15-14-13----------------------
-|----------------------------------------------------------------------------
                                                                              

-|----------------------------------------------------------------------------
-|----------------------------------------------------------------------------
-|----------------------------------------------------------------------------
-|--------------15--19--17-17-15----------------------------------------------
-|-15^-13-11-13---------------------------------------------------------------
-|----------------------------------------------------------------------------
                                                                              
Ill put What Would I Know and MF from Hell on here soon.  Bye!
Добавлено: 25.06.2012
Другие материалы по этой песне:

Страница создана 20.03.2012
http://primanota.ru/datsuns/harmonic-generator-chords.htm
Привет, Гость.
Предлагаем пройти революционный курс по гитаре.
Подарок от PrimaNota.Ru, забирай!