PrimaNota.ru - самый крупный в мире бесплатный архив песенных текстов, аккордов, табулатур и нот


Datsuns - Girls Best Friend - таба, видео

Регистрация Запомнить меня
Войти через:  Facebook Google Twitter Vk Yandex Mail.ru

Datsuns - Girls Best Friend - таба, видео

Печатать
Просмотров: 110
Авторы музыки: Matt Osment, Christian Livingstone, Rudolf de Borst, Philip Somervell
Авторы текста: The Datsuns
Intro
e|---------------------------------|
B|---------------------------------|
G|--------------------4-7----------|
D|-2-2--2-4-5-5-4-2---4-7-7-7-5----|
A|-2-2--2-4-5-5-4-2---2-5-7-7-5----|
E|-0-0--0-2-3-3-2-0-------5-5-3----| x4

Pre-Chorus:
e|------------------------------------------------------------------|
B|------------------------------------------------------------------|
G|------------------4-4-4-4-4-4-4-4--5-5-5-5-5-5-5-5--7-------------|
D|-7-7-7-7-7-7-7-7--4-4-4-4-4-4-4-4--5-5-5-5-5-5-5-5--7-------------|
A|-7-7-7-7-7-7-7-7--2-2-2-2-2-2-2-2--3-3-3-3-3-3-3-3--5-------------|
E|-5-5-5-5-5-5-5-5--------------------------------------------------|
pm -------------------------------------------------

Bridge:
e|-----------------------------------|-----------------------------------|
B|-----------------------------------|-----------------------------------|
G|-----------------------------------|-----------------------------------|
D|----------------------------7------|----------------------------7--9---|
A|-----5---5-----------5--7h9---7----|-----5---5-----------5--7h9--------|
E|-5h7---7---7--5--5h7---------------|-5h7---7---7--5--5h7---------------| x2

Breakdown:
e|-----------------------------------|
B|-----------------------------------|
G|--------------------7-7-7-7-7-9----|
D|--------------------7-7-7-7-7-9----|
A|--------------------5-5-5-5-5-7----|
E|-----------------------------------| x3

For the 4th bar let the E ring at the end, this leads into the bass/vocal only part of the breakdown.

Structure:
1. Intro
2. Pre-Chorus
3. Chorus (still trying to work out what each guitar is playing)
4. Pre-Chorus
5. Chorus
6. Bridge
7. Breakdown
8. Pre-Chorus
9. Chorus
10. Solo
11. Outro

Hopefully get the rest of the song nailed asap - it's just trying to seperate the guitars. Cheers.
Добавлено: 10.03.2012
Другие материалы по этой песне:
  • Аккорды и текст

Страница создана 10.03.2012
http://primanota.ru/datsuns/girls-best-friend-chords.htm
Привет, Гость.
Предлагаем пройти революционный курс по гитаре.
Подарок от PrimaNota.Ru, забирай!