PrimaNota.ru - самый крупный в мире бесплатный архив песенных текстов, аккордов, табулатур и нот


Dashboard Confessional - Widows Peak - текст песни, таба, видео

Регистрация Запомнить меня
Войти через:  Facebook Google Twitter Vk Yandex Mail.ru

Dashboard Confessional - Widows Peak - текст песни, таба, видео

Печатать
Просмотров: 98
-------------------------------------------------------------------------------
                             "Widow's Peak" - Dashboard Confessional
-------------------------------------------------------------------------------

Tabbed by: Alex Wong
Email: alex.wong.y@hotmail.com

This one's for molly, she showed me this song and it pretty much owns. Too bad there's 
guitar in the real song. If there was one, this is how it would sound though.

Tuning: half step down

Chords:

E- 022100
A- 577655
Fm-244222
D- xx0323

Verse:

A                    E
You will wait in the widows peak
                       Fm
And while you watch the ships come in
                D
I will take the early train
                    A
And I will take the back streets
E
Down to New Orleans
           Fm
Before the avenues are swallowed
       D
By the morning heat
                       A
And you will watch the ships come in
                    E
And I will take the early train
                   Fm
And I will make it home


Chorus:

A
We're stronger than
                      E
Before the strain had broken us
             Fm
And there is fight in us
  D
I know
             A
That it will take more than

A heavy rain
   E
To silence us
                Fm
When there's so much for us
  D
I know


Bridge:

A, E, Fm, D

(or you could play what I play)

e------0--------0h2p0--------0--------2--0------------0--------2--0------0-------2--0-|
b--------0----------------------------------4------------0-----------------0---3------|
g----2--------2----------1--------1------------------------------------2-------2------|
d-------------------------------------------------------------------0--------0--------|
a--0--------0---------2--------2------------------4----------4------------------------|
E-----------------------------------------------2----------2--------------------------|

A
They've tethered the ships
       E
In the harbor
Fm
They've anchored the rest
   D
At sea

Repeat Chorus a couple of times

| /  slide up
| \  slide down
| h  hammer-on
| p  pull-off
| ~  vibrato
| +  harmonic
| x  Mute note
===============================================================================
Добавлено: 22.05.2012
Другие материалы по этой песне:
  • Аккорды и текст

Страница создана 11.05.2012
http://primanota.ru/dashboard-confessional/widows-peak-chords.htm
Привет, Гость.
Предлагаем пройти революционный курс по гитаре.
Подарок от PrimaNota.Ru, забирай!