PrimaNota.ru - самый крупный в мире бесплатный архив песенных текстов, аккордов, табулатур и нот


Dashboard Confessional - Standard Lines - аккорды и текст, таба, видео

Регистрация Запомнить меня
Войти через:  Facebook Google Twitter Vk Yandex Mail.ru

Dashboard Confessional - Standard Lines - аккорды и текст, таба, видео

Печатать
Просмотров: 206
Standard Lines
Dashboard Confessional
------------------------------------------------------------------------------
                             Standard Liness - Dashboard Confessional
-------------------------------------------------------------------------------
Tabbed by:Matt Snodgrass
Email:snoddyatc@yahoo.com

Tuning:Standard

Suprised this tab wasn't on the site already.  I know an identical one is floating 
around somewhere.  I think it is right.  Not too sure about all of the chord names.
Anyways, hopes this helps someone out

                  -Snoddy

Intro

e|----------------------------------------0--------------------------------|
B|--0-------------------------------------------0--------------------------|
G|----1h2p1------2--2p1------1h2p1----1h2---1h2----------------------------|
D|-2--------2----------2----2-----2--2-------------------------------------|
A|---0---------4-----------0--------0--------------------------------------|
E|0-----------0-----------2--------2---------------------------------------|

e|------------------------------------0----------0----------------------|
B|--0--------------0-------------------------1p0---0h1------------------|
G|----------------------------------2------2------------2---------------|
D|-2---6p4-6p4-4p2---2-4-6p4-2----4------2------------------------------|
A|---0--------------------------4---------------------------------------|
E|0---------------------------------------------------------------------|


The verse chords are just the basic open E and A chords.

E            A                       E
Which of the bold face lies, will we use?
                 A                    E
I hope that your happy, you really deserve it.
             A                        E
This will be best for us both, in the end

CHORUS

          E                  F#
But your taste still lingers on my lips
       C             
Like I just placed them upon yours and
  E            A
I starve, I starve for you.
 E                F#
This new dye is liquid, its
    C
Drowning to the senses and
      E                 A
It's crude, but it will do

Reapeat Intro

Verse 2

So which of the standard lines will we use?
I've been meaning to call you, I've just been so busy
We'll catch up soon, let's make it a point to.

Chorus

Intro

End on E

F#- 004222
Cmaj-002120


| /  slide up
| \  slide down
| B  hammer-on
| p  pull-off
| ~  vibrato
| +  harmonic
| x  Mute note
===============================================================================
Добавлено: 25.06.2012
Другие материалы по этой песне:

Страница создана 26.02.2012
http://primanota.ru/dashboard-confessional/standard-lines-chords.htm
Привет, Гость.
Предлагаем пройти революционный курс по гитаре.
Подарок от PrimaNota.Ru, забирай!