PrimaNota.ru - самый крупный в мире бесплатный архив песенных текстов, аккордов, табулатур и нот


Dashboard Confessional - Screaming Infidelities - аккорды и текст, таба, бас-таба, видео

Регистрация Запомнить меня
Войти через:  Facebook Google Twitter Vk Yandex Mail.ru

Dashboard Confessional - Screaming Infidelities - аккорды и текст, таба, бас-таба, видео

Печатать
Просмотров: 230
Уроки эстрадного вокала в Санкт-Петербурге
Авторы музыки: Chris Carrabba
Авторы текста: Chris Carrabba
Screaming Infidelities
Dashboard Confessional
Dashboard Confessional
Screaming Infidelities
Submitted by: paramore_fans@yahoo.com


Tuning: Standard EADGBe

Chords used:
C#sus4 - x46676
C# -     x46664
Bbm -    x13321
B -      x24442
F# -     244322
C#/F -   143xxx
Ab -     466544
Ab/C -   x365xx
A -      x02220
Ebm -    x68876
Ab/Ebm - x668xx


Chords used: for original
open C# Tuning(C#down-G#down-C#down-C#down-c#up-c#down)

C#sus4 - 000005
C# -     000000 or 000004
Bbm -    020002 or 020004
B -      x30000
F# -     500000 or 500005
C#/F -   400000 or 400004
Ab -     x00000 or 777000
Ab/C -   x40000
A -      x10000
Ebm -    222000
Ab/Ebm - 070000


Verse 1:
C#sus4-C#
  I'm missing you bad
Bbm      A
I never sleep
Avoiding the spots where
F#            C#/F
we'd have to speak
And this bottled beast
   Ab/C   Bbm    A
Is taking me home
C#sus4-C#
         Im cuddling close To
Bbm          B
blankets and sheets
But you're not alone And
F#            C#/F
you're not discreet
Make sure I know who's
Ab/C   Bbm     A
taking you home
C#sus4-C#
         I'm reading your note
Bbm   B
Over again there's not a word
     F#      C#/F
That I comprehend
Except when you signed it I will
Ab/C     Bbm           A
love you always And forever


Interlude:

Standard tuning:

Guitar 1:
C#--G#/Ebm--Bbm--F#--C#/F--Bbm--G#/Ebm

Guitar 2:
       C#           Ab/Ebm      Bbm     F#
e|-1-2-4--4-2-1-|-4--4--4-2-1-|------|-2--2-|
B|--------------|-------------|-4--4-|------|
G|--------------|-------------|------|------|
D|--------------|-------------|------|------|
A|--------------|-------------|------|------|
E|--------------|-------------|------|------|

      C#/F       Bbm        Ab/Ebm
e|-2-1---------|------|-4-4-4-4-4-4-4-4-|
B|-----2--2--2-|-4--4-|-----------------|
G|-------------|------|-----------------|
D|-------------|------|-----------------|
A|-------------|------|-----------------|
E|-------------|------|-----------------|


Open C# Tuning: 1 guitar only
        C#           Ab/Ebm         Bbm           F#
c#|-4-5-7--7-5-4-|-7--7-7-7-5-4-|-2------4-|-5------5--5-5-|
c#|-0-0-0--0-0-0-|-0--0-0-0-0-0-|-0--0-0-0-|-0--0-0-0--0-0-|
C#|-0-0-0--0-0-0-|-0--0-0-0-0-0-|-0--0-0-0-|-0--0-0-0--0-0-|
C#|-0-0-0--0-0-0-|-X--X-X-X-----|-X--X-X-X-|-X--X-X-X--X-X-|
G#|-0------------|-7--7-7-7-----|-2--2-2-2-|-5--5-5-5--5-5-|
C#|-0------------|--------------|----------|-5--5-5-5--5-5-|

      C#/F           Bbm             Ab/Ebm
c#|-5-4-0--0-0-0-|-2------4-|-7----7----7----7----7-|
c#|-0-0-0--0-0-0-|-0--0-0-0-|-0--0-0--0-0--0-0--0-0-|
C#|-0-0-0--0-0-0-|-0--0-0-0-|-0--0-0--0-0--0-0--0-0-|
C#|-0-0-0--------|-X--X-X-X-|-X--X-X--X-X--X-X--X-X-|
G#|-0-0-0--------|-2--2-2-2-|-7--7-7--7-7--7-7--7-7-|
C#|--------------|----------|-----------------------|


Chorus:
     C#            Ab
Well as for now im gonna
         Bbm
hear the saddest songs
    F#            C#/F
And sit alone and wonder
Bbm          Ab
  How you're making out
    C#           Ab
But as for me, I wish that
       Bbm           F#
I were anywhere with anyone
C#/F      Bbm Ab
Making out


Verse 2:
C#sus4-C#
         I'm missing your
      Bbm        B
laugh how did it break?
And when did your eyes
  F#          C#/F
begin to look fake?
I hope you're as happy
   Ab/C      Bbm    A
as you're pretending
C#sus4-C#
         I'm cuddling close
   Bbm          B
to blankets and sheets
           F#      C#/F
I am alone in my defeat
I wish I knew we
     Ab/C   Bbm    A
were safely at home
C#sus4-C#
         I'm missing you bad
Bbm      B
I never sleep
Avoiding the spots
      F#            C#/F
where we'd have to speak
And this bottle of beast
   Ab/C   Bbm    A
is taking me home


(Repeat interlude and chorus silently)


Outro:
C#                F#          Ebm
  Your hair leaps everywhere screaming
                  F#
 infidelities and taking it's where (x4)


end on C#
Добавлено: 15.06.2012
Другие материалы по этой песне:

Страница создана 21.02.2012
http://primanota.ru/dashboard-confessional/screaming-infidelities-chords.htm
Привет, Гость.
Предлагаем пройти революционный курс по гитаре.
Подарок от PrimaNota.Ru, забирай!