PrimaNota.ru - самый крупный в мире бесплатный архив песенных текстов, аккордов, табулатур и нот


Dashboard Confessional - Hope Youre Happy - текст песни, таба, видео

Регистрация Запомнить меня
Войти через:  Facebook Google Twitter Vk Yandex Mail.ru

Dashboard Confessional - Hope Youre Happy - текст песни, таба, видео

Печатать
Просмотров: 135
Dashboard Confessional- Hope You're Happy
Tuning: E flat

Intro:

E----------------------------------|--------------------------0-------|
B------0---------------------------|--------------------------------0-|
G----------1h2p1-------2-----2p1---|--------1h2p1---------1h2---1h2---|
D----2-----------2---------0-----2-|------2-------2-----2-------------|
A--------0-----------4---0---------|----0-------------0---------------|
E--0---------------0---------------|--2-------------2-----------------|

E----------------------------------|--------0---------------0---------|
B------0---------------0-----------|----------------------0---0-------|
G----------------------------------|------2-------------5-------5-----|
D----2-----6p4h6p4-4p2---2-4h6p4-2-|----4-------------7-----------7---|
A--------0-------------------------|--4-------------7-----------------|
E--0-------------------------------|----------------------------------|

Verse:

E----------------0---------------|------------------0---0-0-----------|
B----------------0---------------|------------------0---0-0-----------|
G-13--13--13-14--6---------------|-13--13--13-14-13-4---2-2-----------|
D--x---x---x-x---6---------------|--x---x---x--x--x-4---2-2-----------|
A-11--11--11-12--0---------------|-11--11--11-12-11-0---0-0-----------|
E--0---0---0-0-------------------|--0---0---0--0--0-------------------|

E----------------0---------------|------------------0---0-0-----------|
B----------------0---------------|------------------0---0-0-----------|
G-13--13--13-14--6---------------|-13--13--13-14-13-4---2-2-----------|
D--x---x---x-x---6---------------|--x---x---x--x--x-4---2-2-----------|
A-11--11--11-12--0---------------|-11--11--11-12-11-0---0-0-----------|
E--0---0---0-0-------------------|--0---0---0--0--0-------------------|

Chourus:

E--0-------2-------0-------------|---------------------0--------------|
B--0-------2-------0-------------|---------------------0--------------|
G--1-------2-------6-------------|-14-13-11-9---11-8---6--------------|
D--2-------4-------6-------------|--x--x--x-x----x-x---6--------------|
A--2-------4-------0-------------|-12-11--9-7----9-6---0--------------|
E--0-------2---------------------|--0--0--0-0----0-0------------------|

E--0-------2-------0-------------|---------------------0--------------|
B--0-------2-------0-------------|---------------------0--------------|
G--1-------2-------6-------------|-14-13-11-9---11-8---6--------------|
D--2-------4-------6-------------|--x--x--x-x----x-x---6--------------|
A--2-------4-------0-------------|-12-11--9-7----9-6---0--------------|
E--0-------2---------------------|--0--0--0-0----0-0------------------|

End:

E---0-------|
B---0-------|
G---1-------|
D---2-------|
A---2-------|
E---0-------|
Добавлено: 12.07.2012
Другие материалы по этой песне:
  • Аккорды и текст

Страница создана 14.03.2012
http://primanota.ru/dashboard-confessional/hope-youre-happy-chords.htm
Привет, Гость.
Предлагаем пройти революционный курс по гитаре.
Подарок от PrimaNota.Ru, забирай!