PrimaNota.ru - самый крупный в мире бесплатный архив песенных текстов, аккордов, табулатур и нот


Dashboard Confessional - Hey Girl - аккорды и текст, таба, видео

Регистрация Запомнить меня
Войти через:  Facebook Google Twitter Vk Yandex Mail.ru

Dashboard Confessional - Hey Girl - аккорды и текст, таба, видео

Печатать
Просмотров: 161
Авторы музыки: Chris Carrabba
Авторы текста: Chris Carrabba
Hey Girl
Dashboard Confessional
-------------------------------------------------------------------------------
                      HEY GIRL - Dashboard Confessional
-------------------------------------------------------------------------------
Tabbed by: Robert Piller
Email: nothin7@hotmail.com

Tuning: Standard, down 1/2 step

I know it's not perfect, but it's damn close for one guitar. Have at it.

Chords:
     D* B  E  Ab A (A) C# E Eb
eb|--2--0--0--0--0--0--0--0--0--|
Bb|--4--0--0--0--0--0--0--0--0--|
Gb|--4--4--1--x--2--x--6--9--8--|
Db|-----4--2--6--2--7--6--9--9--|
Ab|-----2--2--6--0--7--4--7--6--|
Eb|--------0--4-----5-----0-----|

Intro:
D* repeating

Riff:
eb|-------------|
Bb|--4-2---5-4--|
Gb|--4-3---2-2--|
Db|-------------|
Ab|-------------|
Eb|-------------|

Verse:
eb|--0--0--0--0--|
Bb|--4--4--4--4--|
Gb|--4--4--4--4--|
Db|--x--x--2--x--|
Ab|--2--4--0--4--|
Eb|--------------|

Main Chorus:
B E Ab A
B C# A C#
B Ab C# A
B E Ab A

End Chorus ("Go on, go on"):
B E Ab E
B E C# E
B E Ab E
B E C# A

Breakdown (2nd "bottom bottomed out"):
B Ab E

Outro:
C# C# Eb E
A Ab A Ab B
Добавлено: 19.05.2012
Другие материалы по этой песне:
  • Аккорды и текст

Страница создана 06.04.2012
http://primanota.ru/dashboard-confessional/hey-girl-chords.htm
Привет, Гость.
Предлагаем пройти революционный курс по гитаре.
Подарок от PrimaNota.Ru, забирай!