PrimaNota.ru - самый крупный в мире бесплатный архив песенных текстов, аккордов, табулатур и нот


Dashboard Confessional - Bitter Pill - аккорды и текст, видео

Регистрация Запомнить меня
Войти через:  Facebook Google Twitter Vk Yandex Mail.ru

Dashboard Confessional - Bitter Pill - аккорды и текст, видео

Печатать
Просмотров: 102
Bitter Pill
Dashboard Confessional
Chords Used
-x--x---x--x-----x--3---3------0---2--3--2--0--0------------|
-0--1---1--3-----3--3---3------0---1--1--3--3--3------------|
-0--0---0--0-----2--0---2------0---2--0--2--2--0------------|
-0--0---2--4-----4--0---0------9---0--2--0--0--2------------|
-x--x---3--5-----0--2---0------7---0--0--0--0--2------------|
-3--3---x--x-----x--3---2------x---x--x--x--x--0------------|
G6 Gsus C  Dsus2 D6 G  Dsus/F# Em D7 Am7 D D Em7

Riff 1
-----------------------|
---0h1p0-0-1-----------|
---0---0-0-0-----------|
---0---0-0-2-----------|
-----------3-----------|
-3---------------------|


Riff 1   C      Dsus2
        Walking away.
               G6
It's not the same as running.
D6      Gsus   C              Dsus2       G6   D6 Riff 1
Is it to you know that you've run in this ground.
C              Dsus2
And you say take this.
       G6         D6     Gsus   C
This medicine is just what you deserve.
D6                    G6
Swallow, choke, and die.

Chorus:
           G
And this bitter pill is leaving you
       Dsus/F#
with such an angry mouth.
            Em
One that's void of all discretion
         D7
such an awful tearing sound.
           G                        Dsus/F#
With it's measure only equal by the power of my stare
        Am7                          D7
glaring over you and over you this feeling of despair
       Am7       D7          G? G6        Riff 1
is never wearing out.


C             Dsus2
It's wearing off
           G6           D6       Gsus    C
and it's leaving you with such a heavy heart
      Dsus2   G6  D6  Riff 1
and a head to match.
C              Dsus2
The bottle is waiting
     G              D6      Gsus   C
the cap is twisted begging to be used
    Dsus2     G6
and so are you.    Chorus

End parts:

G  Dsus2  Em7  D  D      End with G
Добавлено: 11.03.2012
Другие материалы по этой песне:
  • Аккорды и текст

Страница создана 11.03.2012
http://primanota.ru/dashboard-confessional/bitter-pill-chords.htm
Привет, Гость.
Предлагаем пройти революционный курс по гитаре.
Подарок от PrimaNota.Ru, забирай!