PrimaNota.ru - самый крупный в мире бесплатный архив песенных текстов, аккордов, табулатур и нот


Daryll Ann - The Doctor And I - аккорды и текст, видео

Регистрация Запомнить меня
Войти через:  Facebook Google Twitter Vk Yandex Mail.ru

Daryll Ann - The Doctor And I - аккорды и текст, видео

Печатать
Просмотров: 87
The Doctor And I
Daryll Ann
- - - - - - - - - - - - - - - - - - - - - - - - - - - -
 D a r y l l - A n n   -   T h e   D o c t o r   &   I 
- - - - - - - - - - - - - - - - - - - - - - - - - - - -

Chords:

Bm   =  x-2-4-4-3-2
D    =  x-5-7-7-7-5
F#m  =  2-4-4-2-2-2
F#   =  2-4-4-3-2-2
G    =  3-5-5-4-3-3
A    =  5-7-7-6-5-5


Intro:


 | Bm              |D      F#m    |Bm              |D      F#      |
e|-----------------------------------------------------------------|
B|-------------------------2---------------------------2-----------|
G|---------------------2-------2---------------------------3-------|
D|---------4-3-2-0-3h4---4-------4---------4-3-2-0-3h4---4-----4-0-|
A|-2---0-2-------------------------2---0-2-------------------------|
E|-----------------------------------------------------------------|



Bm                         D  F#m
  When you're feeling small
Bm                     D  F#
  And you can't say why
G                        D  A
 Count your blessings now
G                D           F#
 Realize you are richer than I


Bm                      D  F#m
  Being young and bright
Bm                  D  F#
  Still a life ahead
G                   D  A
 Take it as it comes
G                D           A
 Between now and ever you're gone



    D           Bm
The doctor and I
     F#m  A
Will never
      D         Bm
Think Lightly about
   F#m   A
Your case
      G             D
We'll stand right beside you
      A             G
We're close when you call


< play intro twice >

|Bm    |D  F#m|Bm    |D  F# |
|Bm    |D  F#m|Bm    |D  F# |


Bm                         D  F#m
  When you're feeling small
Bm                     D  F#
  And you can't say why
G                        D  A
 Count your blessings now
G                 D           A
 You know you are richer than I



    D           Bm
The doctor and I
     F#m  A
Will never
      D         Bm
Think lightly about
   F#m   A
Your case
      G             D
We'll stand right beside you
      A             G
We're close when you call


|Bm    |D  F# |Bm D  |A  G  |  
|Bm    |D  F# |Bm D  |A     |
|G     |

    D           Bm
The doctor and I
     F#m  A
Will never
      D         Bm
Think lightly about
   F#m   A
Your case
      G             D
We'll stand right beside you
      A             G
We're close when you call


|D     |Bm    |F#m   |A     |  
|D

------------------------------------------------------------------------------------------------------------

         _|_|_|_|_|  _|_|_|_|_|
        _|      _|  _|
       _|      _|  _|
      _|      _|  _|
     _|_|_|_|_|  _|
    _|          _|
   _|          _|
  _|          _|
 _|          _|_|_|_|_|

------------------------------------------------------------------------------------------------------------
Добавлено: 22.12.2015
Другие материалы по этой песне:
  • Аккорды и текст

Страница создана 22.12.2015
http://primanota.ru/daryll-ann/doctor-and-i-chords.htm
Привет, Гость.
Предлагаем пройти революционный курс по гитаре.
Подарок от PrimaNota.Ru, забирай!