PrimaNota.ru - самый крупный в мире бесплатный архив песенных текстов, аккордов, табулатур и нот


Dartz - Once Twice Again - таба, бас-таба, видео

Регистрация Запомнить меня
Войти через:  Facebook Google Twitter Vk Yandex Mail.ru

Dartz - Once Twice Again - таба, бас-таба, видео

Печатать
Просмотров: 201
Уроки эстрадного вокала в Санкт-Петербурге
Dartz! - Once, Twice, Again!
Tabbed by: David H

Tuning :Standard

e|-------------------------|
B|----3----------0---------|
G|---------0-----------0---|
D|-------------------------|
A|-0h3--0h3---0h3--0h3-----| x4
E|-------------------------|

e|-------------------------------------------------------------|
B|------3---3---3--------------10-------10-------10------10----|
G|-----0--0---0--0-0----------0--------0--------0-------0------|
D|----0----0---0--0---------12-------12-------12------12-------|
A|-0h3-------------------/10-----0h10-----0h10-----0h10--------|
E|-------------------------------------------------------------| x4

e|---------------------------------|
B|-15-15-15--15-15-15--15-15-15-15-|
G|-14-14-14--14-14-14--14-14-14-14-|
D|-12-12-12--12-12-12--12-12-12-12-|
A|-----------12-12-12--12-12-12-12-|   -
E|---------------------------------|   |
                                       | X2
e|-10-10-10--10-10-10--10-10-10-10--|  |
B|-12-12-12--12-12-12--12-12-12-12--|  -
G|-12-12-12--12-12-12--12-12-12-12--|
D|-12-12-12--12-12-12--12-12-12-12--|
A|-10-10-10--10-10-10--10-10-10-10--|
E|----------------------------------|

e|--------------------------------|
B|--------------------------------|
G|-0---0--------0------0------0---|
D|--2h4---0-2h4---0-2h4--0-2h4----|
A|--------------------------------|   -
E|--------------------------------|   |
                                      |X2
e|---------------------------|        |
B|---------------------------|        -
G|-----0-----0------0-----0--|
D|--2h4---2h4----0h2---0h2---|
A|-3-----3------2-----0------|
E|---------------------------| 

e|-------------------------|
B|----3----------0---------|
G|---------0-----------0---|
D|-------------------------|
A|-0h3--0h3---0h3--0h3-----| x2
E|-------------------------|

e|-------------------------------------------------------------|
B|------3---3---3--------------10-------10-------10------10----|
G|-----0--0---0--0-0----------0--------0--------0-------0------|
D|----0----0---0--0---------12-------12-------12------12-------|
A|-0h3-------------------/10-----0h10-----0h10-----0h10--------|
E|-------------------------------------------------------------| x4

e|---------------------------------|
B|-15-15-15--15-15-15--15-15-15-15-|
G|-14-14-14--14-14-14--14-14-14-14-|
D|-12-12-12--12-12-12--12-12-12-12-|
A|-----------12-12-12--12-12-12-12-|   -
E|---------------------------------|   |
                                       | X2
e|-10-10-10--10-10-10--10-10-10-10--|  |
B|-12-12-12--12-12-12--12-12-12-12--|  -
G|-12-12-12--12-12-12--12-12-12-12--|
D|-12-12-12--12-12-12--12-12-12-12--|
A|-10-10-10--10-10-10--10-10-10-10--|
E|----------------------------------|

e|--------------------------------|
B|--------------------------------|
G|-0---0--------0------0------0---|
D|--2h4---0-2h4---0-2h4--0-2h4----|
A|--------------------------------|   -
E|--------------------------------|   |
                                      |X2
e|---------------------------|        |
B|---------------------------|        -
G|-----0-----0------0-----0--|
D|--2h4---2h4----0h2---0h2---|
A|-3-----3------2-----0------|
E|---------------------------| 

e|-----------------|
B|-7----<7>--------|
G|-7----------<7>--|
D|-5-------<7>-----|
A|-----------------|
E|-----------------|

e|-----------------|
B|-7777---7777-----|
G|-7777---7777-----|
D|-9999---7777-----| use pm on A&D string and use D,G,B strings to 
A|-7777---5555-----| highlight (listen to song for timing)
E|-----------------| x2

e|--------------------------------------------|
B|----7----7----7-----------7----7-----7------|
G|--7---7----7----7--7---7----7----7-----7--7-|
D|--------------------------------------------|
A|-7-7----7----7----7---5-5-----5----5-----5--|
E|--------------------------------------------| x2

e|-----------------|
B|-7777---7777-----|
G|-7777---7777-----| (listen to song for timing)
D|-9999---7777-----| 
A|-7777---5555-----| x2
E|-----------------| 

Guitar 1 keeps playing those chords to accompany guitar 2 below

e|-------------------------------------|
B|-77-7777-7h8h10--7--7--7--7--7h8h10--|
G|-77-7777-------7--77-77-77-77------7-|
D|-99-9999-----------------------------|
A|-77-7777-----------------------------|
E|-------------------------------------|

e|----------------------------------------------|
B|-7--7--7--7--7h8h10--7--7--7--7--7h8h10-------|
G|--7--77-77-77------7--7--77-77-77------7---9--|
D|----------------------------------------------|
A|----------------------------------------------|
E|----------------------------------------------|

enjoy

key
h = hammer on
<*> = natural harmonic
/ = slide up
Добавлено: 02.05.2012
Другие материалы по этой песне:
  • Аккорды и текст

Страница создана 02.05.2012
http://primanota.ru/dartz/once-twice-again-chords.htm
Привет, Гость.
Предлагаем пройти революционный курс по гитаре.
Подарок от PrimaNota.Ru, забирай!