PrimaNota.ru - самый крупный в мире бесплатный архив песенных текстов, аккордов, табулатур и нот


Darren Korb - Sandbox - бас-таба, видео

Регистрация Запомнить меня
Войти через:  Facebook Google Twitter Vk Yandex Mail.ru

Darren Korb - Sandbox - бас-таба, видео

Печатать
Просмотров: 313
Уроки эстрадного вокала в Санкт-Петербурге
Авторы музыки: Darren Korb

-------------------------------------------------------------------------------
                             Sandbox - Darren Korb
-------------------------------------------------------------------------------
Tabbed by: thewwe4
E-mail: 

Tuning:

G|-1----|-----------------------------------------------------------|
D|--2---|-----------------------------------------------------------|
A|---2--|----7-----------7--7-------------------7-7-----------------| 8x
E|------|--------7-7------------7-7--7----5-----------5--5----7-7-7-|
    E
  Intro                         Verse

G|----------------------------------|
D|----------------------------------|
A|---3--------7--------3--------7---| 6x
E|----------------------------------|
     C        E        C        E
             Chorus

G|-----------------------------------------------------------|
D|-----------------------------------------------------------|
A|----7-----------7--7-------------------7-7-----------------| 8x
E|--------7-7------------7-7--7----5-----------5--5----7-7-7-|

                           Outro
| /  slide up
| \  slide down
| h  hammer-on
| p  pull-off
| ~  vibrato
| +  harmonic
| x  Mute note
===============================================================================
Добавлено: 09.06.2016
Другие материалы по этой песне:
  • Аккорды и текст

Страница создана 09.06.2016
http://primanota.ru/darren-korb/sandbox-chords.htm
Привет, Гость.
Предлагаем пройти революционный курс по гитаре.
Подарок от PrimaNota.Ru, забирай!