PrimaNota.ru - самый крупный в мире бесплатный архив песенных текстов, аккордов, табулатур и нот


Darren Korb - In Case Of Trouble - таба, видео

Регистрация Запомнить меня
Войти через:  Facebook Google Twitter Vk Yandex Mail.ru

Darren Korb - In Case Of Trouble - таба, видео

Печатать
Просмотров: 464
Авторы музыки: Darren Korb

Bastion Soundtrack - In Case of Trouble - Darren Korb
Tabbed by aaronsox23@yahoo.com

Standard Tuning


   D5|
|-------------------------5------------5----5-----------5---------|
|------3-3-3------3-3-3-3-3--3-3-----3---3--3---3-3-3-3-3--3-3-3--|
|--0h2-2-2-2--0h2-2-2-2-2-2--2-2-0h2--------0h2-2-2-2-2-2--2-2-0h2|
|--0----------0-----------0-----------------0-----------0------0--|
|-----------------------------------------------------------------|
|-----------------------------------------------------------------|


---------5---------5------5-----------------|
-3-3-3-3-3---3-3-3-3--3-3-3-------3---------|
-2-2-2-2-0h2-2-2-2-2--2-2-0h2--2--2-2-2-2-2-|
---------0---------0------0-------0-0-0-0-0-|
--------------------------------------------|
--------------------------------------------|

    F     G                                          F     |
|----------------------------------------------------------|
|---------3-----3-------------3-----3-------3--------------|
|---------0-0-0-0--0-0--0-0-0-0-0-0-0-0-0-0-0-0-0-0--2-2-2-|
|---------0-0-0-0--0-0--0-0-0-0-0-0-0-0-0-0-0-0-0-0--3-3-3-|
|---------x-------------------x-----x-------x---2----3-3-3-|
|---1~~~~-3-------------------3-----3-------3---3----------|

  D5
--5-------5-----------5-5-----5-5-5-5-5---------|
--3--3-3--3--3-3--3---3-3-3---3-3-3-3-3---------|
--2--2-2--2--2-2--0h2-2-2-0h2-2-2-2-2-2--2-2-2--|
--0-------0-------0-------0-----------0--0-0-0--|
------------------------------------------------|
------------------------------------------------|


    F     G                                         F     |
|---------------------------------------------------------|
|---------3-----3-------------3-----3-------3-------------|
|---------0-0-0-0--0-0--0-0-0-0-0-0-0-0-0-0-0-0-0-0-2--2--|
|---------0-0-0-0--0-0--0-0-0-0-0-0-0-0-0-0-0-0-0-0-3--3--|
|---------x-------------------x-----x-------x-----2-3--3--|
|---1~~~~-3-------------------3-----3-------3-----3-------|

 D5
-5-------5-----------5-5-----5-5-5-5-5---------|
-3--3-3--3--3-3--3---3-3-3---3-3-3-3-3--3-3-3--|
-2--2-2--2--2-2--0h2-2-2-0h2-2-2-2-2-2--2-2-2--|
-0-------0-------0-------0-----------0------0--|
-----------------------------------------------|
-----------------------------------------------|
Добавлено: 05.03.2012
Другие материалы по этой песне:
  • Аккорды и текст

Страница создана 05.03.2012
http://primanota.ru/darren-korb/in-case-of-trouble-chords.htm
Привет, Гость.
Предлагаем пройти революционный курс по гитаре.
Подарок от PrimaNota.Ru, забирай!