PrimaNota.ru - самый крупный в мире бесплатный архив песенных текстов, аккордов, табулатур и нот


Darren Korb - Impossible - бас-таба, видео

Регистрация Запомнить меня
Войти через:  Facebook Google Twitter Vk Yandex Mail.ru

Darren Korb - Impossible - бас-таба, видео

Печатать
Просмотров: 174
Уроки эстрадного вокала в Санкт-Петербурге
Авторы музыки: Darren Korb

Intro, simple to play but sort of complex timing.
|--------------------------------------------------------------------------------------
|--------------------------------------------------------------------------------------
|--------------------------------------------------------------------------------------
|----/8/--------8/--------8/----8--8----8-8----8-8----8--8----8--8----8-8--8----8--8--8

|--------------------------------------------------------------------------------------------5
|------------------------------------5-------------------------5------------------------5--8--
|--------------------------6--8-8/9----------------6--8--8/9-------------------6--8--9--------
|----8--6--8----8--6--8-----------------8--6--8---------------------8--6--8-------------------

|--------------------------------------5-----------------------------------5-----
|--------------------------------5--8-----8--------------------------5--8-----8--
|-----------------------6--8--9-----------------------------6--8--9--------------
|----8--8--6--8--8-6--8----------------------8--6--8--6--8-----------------------

|------------------------------5-----------------------------------5-----
|------------------------5--8-----8--------------------------5--8-----8--
|---------------6--8--9-----------------------------6--8--9--------------
|8--6--8--6--8-----------------------8--6--8--6--8-----------------------

|----------------------------------5---------------------------------------------
|----------------------------5--8-----8------------------------------------------
|----------------------8--9---------------------------------------8---------8----
|8--6--6-8--6--6-8--6--------------------8/--------/8--------8---------8---------


I'd imagine everything below was more or less improved, but this is the way it's played in the song anyway.
|------------------------------------------------------------------------------------
|------10---------------10---------------------10---------------10---------------10--
|---10-----7h8-------10-----7h8-8--10-------10-----7h8-------10-----7h8-8--7h8-8-----
|8----------------8----------------------8----------------8--------------------------

|--------------------------------------------------------------------------------------
|------10--------------------10------10--------------10---------------10-----------10--
|---10-----7h8--8--10-----10-----7h8----8--10-----10-----7h8-------10-----7h8--10------
|8---------------------8-----------------------8----------------8----------------------

|------------------------------------------------------------------------------------------
|------10---------------------10------------------------10---------------10----------------
|---10-----7h8----10-------10-----7h8-8--7h8-8-------10-----7h8-------10-----7h8--8--10----
|8----------------------8-------------------------8----------------8-----------------------

|---------------------------------------------------------------
|------10---------------10--------------------------------------
|---10-----7h8-------10-----7h8-8--7h8-8------------------------
|8----------------8-------------------------8/--------8/--------

|------------------------------------------------------------------------------------
|------------------------------------------------------------------------------------
|------------------------------------------------------------------------------------
|8--------8-8--------8-8-8--------6-8-8--------6h8--8--------6-8-8----8--6--8--------

Back into the verse, but it's a bit different this time around.
|---------------------------5-------------------------------------------5-----
|---------------------5--8-----8--5-------------------------------5--8-----8--
|------------6--8--9-------------------------------------6--8--9--------------
|8--6--8--6--------------------------------8--6--8--6--8----------------------

|------------------------5----------------------------------5--5----5-------------------------
|------------------5--8-----8--5----------------------5--8--------8---8-5---------------------
|---------6--8--9----------------9-----------6--8--9------------------------------------------
|8--6--8----------------------------8--6--8-------------------------------8/--------/8--------

Aaand for the finale. Again, different from when you played it last.
|-------------------------------------------------------------------------------------------------------
|--------------------------10---------------10----------------------10---------------10-------------10--
|-----8---------8-------10-----7h8-------10-----7h8-8--7h8-8-----10-----7h8-------10-----7h8--10----10--
|8---------8---------8----------------8-----------------------8----------------8------------------------

|-------------------------------------------------------------------------------------
|------10-------------------10---------------------10------------------10-------------
|---10-----7h8-8--10-----10----7h8-8--7h8-8-----10----7h8----10-----10----7h8-8-8-10--
|8--------------------8----------------------8-------------------8--------------------

|------------------------------------------------------------------------------
|------10--------------10---------------------10--------------10---------------
|---10----7h8-------10----7h8--8----10-----10----7h8-------10----7h8--8----10--
|8---------------8----------------------8---------------8----------------------

|-------------------------------
|------10--------------10-------
|---10----7h8-------10----7h8-10
|8---------------8--------------

Congrats, now you know how to play Impossible on bass!
Добавлено: 09.06.2016
Вам также может быть интересно:
Другие материалы по этой песне:
  • Аккорды и текст

Страница создана 09.06.2016
http://primanota.ru/darren-korb/impossible-chords.htm
Привет, Гость.
Предлагаем пройти революционный курс по гитаре.
Подарок от PrimaNota.Ru, забирай!