PrimaNota.ru - самый крупный в мире бесплатный архив песенных текстов, аккордов, табулатур и нот


Darren Korb - A Proper Story - таба, видео

Регистрация Запомнить меня
Войти через:  Facebook Google Twitter Vk Yandex Mail.ru

Darren Korb - A Proper Story - таба, видео

Печатать
Просмотров: 536
Авторы музыки: Darren Korb

--------------------------------
 A Proper Story - Darren Korb
          Bastion OST
--------------------------------

Tabbed by: Kinarth
E-mail: sam_g-j@live.co.uk
Tuning : CGCFGC ,  Csus4 (Modal)

If there are any mistakes or improvements you can suggest feel free to message me or 
make you own tab using mine as a base.
Any feedback will be appreciated.
Also, please rate if you can.

Key
----------------
 /   slide up
 \   slide down
 h   hammer-on
 p   pull-off
----------------

Part 1:
e|------------------|
B|------------------|
G|-0h2p0---------0--|
D|-------3p2-2h3----|
A|------------------|
E|------------------|


Part 2:
Do some general strumming in this bit, just however you like it.
e|----0------------0-----------0---0-0-0------------------|
B|----0------------0-----------0---0-0-0------------------|
G|----2------------2-----------2---2-2-2-0h2p0---------0--|
D|----0--------5/7-0-------5/7-0---0-0-0-------3p2-2h3----|
A|----0--------3/5-0-------3/5-0---0-0-0------------------|
E|--0-0--0-0-0-----0-0-0-0-----0---0-0-0------------------|

e|----0------------0-----------0---0-0-0--------|
B|----0------------0-----------0---0-0-0--------|
G|----2------------2-----------2---2-2-2-0---0--|
D|----0--------5/7-0-------5/7-0---0-0-0-0---0--|
A|----0--------3/5-0-------3/5-0---0-0-0-3---5--|
E|--0-0--0-0-0-----0-0-0-0-----0---0-0-0-3---5--|


Part 3:
e|---------------------------10---------------|
B|---------------------12-10----13-12-10-8-10-|
G|-7--7-7-7-7--7-7----------------------------|
D|-----------------7\-------------------------|
A|--------------------------------------------|
E|--------------------------------------------|

e|------------12-13-12-----------------------------|
B|-12---13-12----------12-10-----------10---12¬13--|
G|-------------------------------10----------------|
D|----------------------------12-------------------|
A|-------------------------------------------------|
E|-------------------------------------------------|

e|-----------------------------------------|
B|-10--12--13--12h13p12-10-----------------|
G|-----------------------------------------|
D|-------------------------13--12----------|
A|---------------------------------12--10--|
E|-----------------------------------------|

Part 4
This section is the one I'm least sure about, but it gets the job done.
e|----0------------0-----------0-----------0---0-0-0-|
B|----0------------0-----------0-----------0---0-0-0-|
G|----2------------2-----------2-----------2---2-2-2-|
D|----0--------5/7-0-------5/7-0-------5/7-0---0-0-0-|
A|----0--------3/5-0-------3/5-0-------3/5-0---0-0-0-|
E|--0-0--0-0-0-----0-0-0-0-----0-0-0-0-----0---0-0-0-|


e|--3h5-5-5--5-5-5--3h5-5-5--5-5-5--3h5-5-5--5-5-5--3h5-5-5--5-5-5--|
B|--5-----5--5-5-5--5-----5--5-5-5--5-----5--5-5-5--5-----5--5-5-5--|
G|--0-----0--0-0-0--0-----0--0-0-0--0-----0--0-0-0--0-----0--0-0-0--|
D|--0-----0--0-0-0--0-----0--0-0-0--0-----0--0-0-0--0-----0--0-0-0--|
A|------------------------------------------------------------------|
E|------------------------------------------------------------------|

That's all. Just play the different parts where appropriate.

Thanks, Kinarth
Добавлено: 30.06.2013
Другие материалы по этой песне:
  • Аккорды и текст

Страница создана 30.06.2013
http://primanota.ru/darren-korb/a-proper-story-chords.htm
Привет, Гость.
Предлагаем пройти революционный курс по гитаре.
Подарок от PrimaNota.Ru, забирай!