PrimaNota.ru - самый крупный в мире бесплатный архив песенных текстов, аккордов, табулатур и нот


Darren Espanto - Stuck - аккорды и текст, видео

Регистрация Запомнить меня
Войти через:  Facebook Google Twitter Vk Yandex Mail.ru

Darren Espanto - Stuck - аккорды и текст, видео

Печатать
Просмотров: 119
Уроки эстрадного вокала в Санкт-Петербурге
Stuck
Darren Espanto
-------------------------------------------------------------------------------
                             Stuck - Darren Espanto
-------------------------------------------------------------------------------
Tabbed by: Augustus Anthony Magana  
E-mail:Prince_warrior.within@yahoo.com
This is my first tab,so this isn't perfect but this is how I play it.. :) Also please watch our cover of
the song.. here's the link https://www.youtube.com/watch?v=6OEmaLUU5uU Hope you like it.. thanks! 
(Speaking of not perfect,there is a sound of E before the G,I don't know how to obtain that sound so instead I
played it with the G)

Tuning:Standard Tuning with capo 2nd fret

Intro:  
    C                                   Am7
e|--3--------3--------3--------3--------3--------3--------3--------3---------|
B|------1--------1--------1--------1--------1--------1--------1--------1-----|
G|-----0-0------0-0------0-0------0-0------0-0------0-0------0-0------0-0----|
D|---------------------------------------------------------------------------|
A|--3--------3--------3--------3--------0--------0--------0--------0---------|
E|---------------------------------------------------------------------------|
    F                                   G                   
e|--3--------3---------3--------3-------3--------3---------3-------3---------|
B|------1--------1--------1--------1--------1--------1--------1--------1-----|
G|-----0-0------0-0------0-0------0-0------0-0------0-0------0-0------0-0----|
D|---------------------------------------------------------------------------|
A|---------------------------------------------------------------------------|
E|--1--------1--------0--------0--------3--------3--------3--------3---------|

Verse:
    C                                   Am7
  e|--3--------3--------3--------3--------3--------3--------3--------3---------|
  B|------1--------1--------1--------1--------1--------1--------1--------1-----|
  G|-----0-0------0-0------0-0------0-0------0-0------0-0------0-0------0-0----|
  D|---------------------------------------------------------------------------|
  A|--3--------3--------3--------3--------0--------0--------0--------0---------|
  E|---------------------------------------------------------------------------|
I was too dumb to notice...               about you.. 
    F                                   G                   
e|--3--------3---------3--------3-------3--------3---------3-------3---------|
B|------1--------1--------1--------1--------1--------1--------1--------1-----|
G|-----0-0------0-0------0-0------0-0------0-0------0-0------0-0------0-0----|
D|---------------------------------------------------------------------------|
A|---------------------------------------------------------------------------|
E|--1--------1--------0--------0--------0--------0--------3--------3---------|
  to do...                              I knew..                      all the

    C                                   Am7
e|--3--------3--------3--------3--------3--------3--------3--------3---------|
B|------1--------1--------1--------1--------1--------1--------1--------1-----|
G|-----0-0------0-0------0-0------0-0------0-0------0-0------0-0------0-0----|
D|---------------------------------------------------------------------------|
A|--3--------3--------3--------3--------0--------0--------0--------0---------|
E|---------------------------------------------------------------------------|
    butterflies..                       wishful thoughts..
    F                                   G                   
e|--3--------3---------3--------3-------3--------3---------3-------3---------|
B|------1--------1--------1--------1--------1--------1--------1--------1-----|
G|-----0-0------0-0------0-0------0-0------0-0------0-0------0-0------0-0----|
D|---------------------------------------------------------------------------|
A|---------------------------------------------------------------------------|
E|--1--------1--------0--------0--------3-------3--------3--------3----------|
   What are we..                     to you         but you never felt the same

 Chorus:
    C                                   G
e|--3--------3--------3--------3--------3--------3--------3--------3---------|
B|------1--------1--------1--------1--------1--------1--------1--------1-----|
G|-----0-0------0-0------0-0------0-0------0-0------0-0------0-0------0-0----|
D|---------------------------------------------------------------------------|
A|--3--------3--------3--------3---------------------------------------------|
E|---------------------------------------3-------3--------3--------3---------|
    Time may pass us by..            but you stay stuck on my mind and that  
    Am7                                              
e|--3--------3--------3--------3---------3-------3--------------3------------|
B|------1--------1--------1--------1--------1--------1--------1--------1-----|
G|-----0-0------0-0------0-0------0-0------0-0------0-0------0-0------0-0----|
D|---------------------------------------------------------------------------|
A|--0--------0--------0--------0---------------------------------------------|
E|---------------------------------------1-------1--------3--------3---------|
   moment we stared at night...       Right..        But maybe I was wrong all

 
    C                                   G
e|--3--------3--------3--------3--------3--------3--------3--------3---------|
B|------1--------1--------1--------1--------1--------1--------1--------1-----|
G|-----0-0------0-0------0-0------0-0------0-0------0-0------0-0------0-0----|
D|---------------------------------------------------------------------------|
A|--3--------3--------3--------3---------------------------------------------|
E|---------------------------------------3-------3--------3--------3---------|
  along I held...                        Never really mattered stuck on that starting
    Am7                                  F                G    
e|--3--------3--------3--------3---------3-------3--------3------3------------|
B|------1--------1--------1--------1--------1--------1--------1--------1-----|
G|-----0-0------0-0------0-0------0-0------0-0------0-0------0-0------0-0----|
D|---------------------------------------------------------------------------|
A|--0--------0--------0--------0---------------------------------------------|  
E|---------------------------------------1-------1--------3--------3---------|   (strum)
   line I'm still..                    silently,quietly hoping you'll end up with me :(

strumming part: C-Am-F-G 
(you can use this chords if you think its sounds better)
    C               Am        F            G
e|--------3---x------3---x------3---x---------3---x--------------------------|
B|-1----------x--1-------x--1-------x--1----------x--------------------------|
G|------------x----2-----x----2-----x-------------x--------------------------|
D|-----2------x----2-----x------3---x-------------x--------------------------|
A|--------3---x----------x----------x------2------x--------------------------|
E|------------x----------x----------x---------3---x--------------------------|

      C
I was too dumb to notice
                     Am
There was something about you
                        F    
How I used supposed to see things
              G 
If only you knew

         C
All the times we were together I never really mattered
Am
All you see is what you want my heart is being shattered
F
What are we supposed to be
                           G                  
I'm helplessly addicted to you

But you never felt the same

Chorus:
C
Time may pass us by
     G
But you stay stuck on my mind
         Am
And that moment we stared that night
                 F
I thought it was right
     G                      C
But maybe I was wrong all along

                           G
I held onto something that never really mattered
                        Am
Stuck on that starting line
           F                G                         Am - F- Am - F - G
I'm still silently, quietly hoping you'll end up with me

Bridge:
C
Time may pass us by
     G
But you stay stuck on my mind
         Am
And that moment we stared that night
                 F     G
I thought it was right Ohh..

Chorus:
C
Time may pass us by
     G
But you stay stuck on my mind
         Am
And that moment we stared that night
                 F
I thought it was right
     G                      C
But maybe I was wrong all along

                           G
I held onto something that never really mattered
                        Am
Stuck on that starting line
           F                G                        
I'm still silently, quietly hoping you'll end up with me


      C(once)
I was too dumb to notice
                     Am(once)
There was something about you
                            F(once)   
What am I used supposed to do if
                   G(once)G(once)C(once) 
I'm still stuck on you
Добавлено: 04.09.2015
Вам также может быть интересно:
Другие материалы по этой песне:
  • Аккорды и текст

Страница создана 04.09.2015
http://primanota.ru/darren-espanto/stuck-chords.htm
Привет, Гость.
Предлагаем пройти революционный курс по гитаре.
Подарок от PrimaNota.Ru, забирай!