PrimaNota.ru - самый крупный в мире бесплатный архив песенных текстов, аккордов, табулатур и нот


Darling Violetta - Catharsis Of Sufferance - таба, видео

Регистрация Запомнить меня
Войти через:  Facebook Google Twitter Vk Yandex Mail.ru

Darling Violetta - Catharsis Of Sufferance - таба, видео

Печатать
Просмотров: 144
I'm pretty sure this tab is 100% correct, but depending on your tuning, you may have to 
the positioning.


-----------------------------------------------------------------------------|
-----------------------------------------------------------------------------|
---------8---------------------------------------8---------12-13-------------|
-----------11-10-10-8-----------------------------11-10-10-------11-11-11-10-|
-8-10-11--------------11-11-10-8-10-11---8-10-11-----------------------------|
---------------------------------------9-------------------------------------|


-----------------------------------------------------------------------------|
-----------------------------------------------------------------------------|
-----------------------------------------------------------------------------|
-----------------------------------11-10-10-11-10-8-13-11-10-8-6-5-3-5-6-13--|
---10-8-10-8-10-11---10-8-10-11-13-------------------------------------------|
-9-----------------9---------------------------------------------------------|


-----------------------------------------------------------------------------|
-----------------------------------------------------------------------------|
----------12-13--------------------------------------------------------------|
-11-10-10-------11-11-11-10--------------------------------------------------|
-----------------------------------------------------------------------------|
-----------------------------------------------------------------------------|
Добавлено: 13.06.2012
Другие материалы по этой песне:
  • Аккорды и текст

Страница создана 13.06.2012
http://primanota.ru/darling-violetta/catharsis-of-sufferance-chords.htm
Привет, Гость.
Предлагаем пройти революционный курс по гитаре.
Подарок от PrimaNota.Ru, забирай!