PrimaNota.ru - самый крупный в мире бесплатный архив песенных текстов, аккордов, табулатур и нот


Darling Violetta - Angel Main Theme - таба, видео

Регистрация Запомнить меня
Войти через:  Facebook Google Twitter Vk Yandex Mail.ru

Darling Violetta - Angel Main Theme - таба, видео

Печатать
Просмотров: 350
Уроки эстрадного вокала в Санкт-Петербурге

As far as I am aware or concerned this is right!

However if you do feel the need to throw your opinions at me Masamune12003@gmail.com is 
place to do it!

You never know, throw enough and something might stick.

(Slide's, Pull Off's and Tap's are optional.)

Open up with the first note and a volume swell along with the voices at the beginning, 
your at the right volume hit it again as the first note of the song :D

|-------------------------------------------------|
|-------------------------------------------------|
|--------7------------------------------7---------|
|----------10p9---------------------------10p9----|
|-7-9s10--------12s10-9-7-9s10---7-9s10-----------|
|------------------------------8------------------|

|-------------------------------------------------|
|-------------------------------------------------|
|-11h12-------------------------------------------|
|--------10v10v10vslideoff------------------------|
|----------------------------9-7-9-7-9s10---------|
|--------------------------7----------------------|

|-------------------------------------------------|
|-------------------------------------------------|
|-------------------------------------------------|
|------------7-10-9-10-9-7-12-10-9----------------|
|---9-7-9-10------------------------12-10-9-7-9---|
|-7-----------------------------------------------|

|-------------------------------------------------|
|-------------------------------------------------|
|----7------11-12-----------9T16vvvvvvvvv---------|
|------10-9-------10v10v10v-----------------------|
|-10----------------------------------------------|
|-------------------------------------------------|

This is how I play the theme without the backing track, if you want to play along with 
song then do not use any of optional Pull Off's, Slide's etc.

Also, if you are playing alone do not use the timing that you would when playing with 
song, it doesn't work and sounds pretty horrible.

Cheer's!
Добавлено: 14.04.2012
Другие материалы по этой песне:
  • Аккорды и текст

Страница создана 14.04.2012
http://primanota.ru/darling-violetta/angel-main-theme-chords.htm
Привет, Гость.
Предлагаем пройти революционный курс по гитаре.
Подарок от PrimaNota.Ru, забирай!