PrimaNota.ru - самый крупный в мире бесплатный архив песенных текстов, аккордов, табулатур и нот


Darkthrone - Transilvanian Hunger (album) - бас-таба, видео

Регистрация Запомнить меня
Войти через:  Facebook Google Twitter Vk Yandex Mail.ru

Darkthrone - Transilvanian Hunger (album) - бас-таба, видео

Печатать
Просмотров: 64
Tabbed by: 6METAL6BASSIST6
E-mail: petergriffinav@gmail.com

Tuning: 1/4 step up from D tuning, except for "As Flittermice As Satans Spys" which is 1/4 step up from
        drop C.

1. Transilvanian Hunger

F|----------------------------------------------------------------|.
C|----------------------------------------------------------------|.
G|0-0-0-0-0-0-0-0-0-0-0-0-0-0-0-0-0-0-0-0-0-0-0-0-0-0-0-0-0-0-0---|.
D|----------------------------------------------------------------|.
                                                                   . x8
F|----------------------------------------------------------------|.
C|----------------------------------------------------------------|.
G|----------------------------------------------------------------|.
D|0-0-0-0-0-0-0-0-0-0-0-0-0-0-0-0-0-0-0-0-0-0-0-0-0-0-0-0-0-0-0---|.

0:56

F|----------------------------------------------------------------|.
C|----------------------------------------------------------------|.
G|0-0-0-0-0-0-0-0-0-0-0-0-0-0-0---6-6-6-6-6-6-6-6-6-6-6-6-6-6-6---|.
D|----------------------------------------------------------------|.
                                                                   . x8
F|----------------------------------------------------------------|.
C|----------------------------------------------------------------|.
G|0-0-0-0-0-0-0-0-0-0-0-0-0-0-0---2-2-2-2-2-2-2---3-3-3-3-3-3-3---|.
D|----------------------------------------------------------------|.

1:52

F|----------------------------------------------------------------|.
C|----------------------------------------------------------------|.
G|0-0-0-0-0-0-0-0-0-0-0-0-0-0-0-0-0-0-0-0-0-0-0-0-0-0-0-0-0-0-0---|.
D|----------------------------------------------------------------|.
                                                                   . x4
F|----------------------------------------------------------------|.
C|----------------------------------------------------------------|.
G|----------------------------------------------------------------|.
D|0-0-0-0-0-0-0-0-0-0-0-0-0-0-0-0-0-0-0-0-0-0-0-0-0-0-0-0-0-0-0---|.

F|----------------------------------------------------------------|.
C|----------------------------------------------------------------|.
G|0-0-0-0-0-0-0-0-0-0-0-0-0-0-0---6-6-6-6-6-6-6-6-6-6-6-6-6-6-6---|.
D|----------------------------------------------------------------|.
                                                                   . x4
F|----------------------------------------------------------------|.
C|----------------------------------------------------------------|.
G|0-0-0-0-0-0-0-0-0-0-0-0-0-0-0---2-2-2-2-2-2-2---3-3-3-3-3-3-3---|.
D|----------------------------------------------------------------|.

2:47

F|----------------------------------------------------------------|.
C|----------------------------------------------------------------|.
G|----------------------------------------------------------------|.
D|0-0-0-0-0-0-0-0-0-0-0-0-0-0-0-0-0-0-0-0-0-0-0-0-0-0-0-0-0-0-0---|.
                                                                   . x2
F|----------------------------------------------------------------|.
C|----------------------------------------------------------------|.
G|----------------------------------------------------------------|.
D|1-1-1-1-1-1-1-1-1-1-1-1-1-1-1-1-1-1-1-1-1-1-1-1-1-1-1-1-1-1-1---|.

F|----------------------------------------------------------------|
C|----------------------------------------------------------------|
G|7-7-7-7-7-7-7-7-7-7-7-7-7-7-7-7-7-7-7-7-7-7-7-7-7-7-7-7-7-7-7---|
D|----------------------------------------------------------------|

F|----------------------------------------------------------------|
C|----------------------------------------------------------------|
G|8-8-8-8-8-8-8-8-8-8-8-8-8-8-8-8-8-8-8-8-8-8-8-8-8-8-8-8-8-8-8---|
D|----------------------------------------------------------------|

F|----------------------------------------------------------------|.
C|----------------------------------------------------------------|.
G|----------------------------------------------------------------|.
D|0-0-0-0-0-0-0-0-0-0-0-0-0-0-0-0-0-0-0-0-0-0-0-0-0-0-0-0-0-0-0---|.
                                                                   . x3
G|----------------------------------------------------------------|.
D|----------------------------------------------------------------|.
A|----------------------------------------------------------------|.
E|1-1-1-1-1-1-1-1-1-1-1-1-1-1-1-1-1-1-1-1-1-1-1-1-1-1-1-1-1-1-1---|.

3:29

F|----------------------------------------------------------------|.
C|----------------------------------------------------------------|.
G|0-0-0-0-0-0-0-0-0-0-0-0-0-0-0-0-0-0-0-0-0-0-0-0-0-0-0-0-0-0-0---|.
D|----------------------------------------------------------------|.
                                                                   . x4
F|----------------------------------------------------------------|.
C|----------------------------------------------------------------|.
G|----------------------------------------------------------------|.
D|0-0-0-0-0-0-0-0-0-0-0-0-0-0-0-0-0-0-0-0-0-0-0-0-0-0-0-0-0-0-0---|.

F|----------------------------------------------------------------|.
C|----------------------------------------------------------------|.
G|0-0-0-0-0-0-0-0-0-0-0-0-0-0-0---6-6-6-6-6-6-6-6-6-6-6-6-6-6-6---|.
D|----------------------------------------------------------------|.
                                                                   . x4
F|----------------------------------------------------------------|.
C|----------------------------------------------------------------|.
G|0-0-0-0-0-0-0-0-0-0-0-0-0-0-0---2-2-2-2-2-2-2---3-3-3-3-3-3-3---|.
D|----------------------------------------------------------------|.

4:24

F|----------------------------------------------------------------|.
C|----------------------------------------------------------------|.
G|0-0-0-0-0-0-0-0-0-0-0-0-0-0-0-0-0-0-0-0-0-0-0-0-0-0-0-0-0-0-0---|.
D|----------------------------------------------------------------|.
                                                                   . x8
F|----------------------------------------------------------------|.
C|----------------------------------------------------------------|.
G|----------------------------------------------------------------|.
D|0-0-0-0-0-0-0-0-0-0-0-0-0-0-0-0-0-0-0-0-0-0-0-0-0-0-0-0-0-0-0---|.

5:19

F|----------------------------------------------------------------|
C|7-7-7-7-7-7-7-7-7-7-7-7-7-7-7-7-7-7-7-7-7-7-7-7-7-7-7-7-7-7-7---|
G|----------------------------------------------------------------|
D|----------------------------------------------------------------|

F|----------------------------------------------------------------|
C|----------------------------------------------------------------|
G|7-7-7-7-7-7-7-7-7-7-7-7-7-7-7-7-7-7-7-7-7-7-7-7-7-7-7-7-7-7-7---|
D|----------------------------------------------------------------|

F|----------------------------------------------------------------|
C|7-7-7-7-7-7-7-7-7-7-7-7-7-7-7-7-7-7-7-7-7-7-7-7-7-7-7-7-7-7-7---|
G|----------------------------------------------------------------|
D|----------------------------------------------------------------|

F|----------------------------------------------------------------|
C|----------------------------------------------------------------|
G|7-7-7-7-7-7-7-7-7-7-7-7-7-7-7-7-7-7-7-7-7-7-7-7-7-7-7-7-\-------|
D|----------------------------------------------------------------|

F|----------------------------------------------------------------|.
C|----------------------------------------------------------------|.
G|0-0-0-0-0-0-0-0-0-0-0-0-0-0-0-0-0-0-0-0-0-0-0-0-0-0-0-0-0-0-0---|.
D|----------------------------------------------------------------|.
                                                                   . x3 to fadeout.
F|----------------------------------------------------------------|.
C|----------------------------------------------------------------|.
G|----------------------------------------------------------------|.
D|0-0-0-0-0-0-0-0-0-0-0-0-0-0-0-0-0-0-0-0-0-0-0-0-0-0-0-0-0-0-0---|.

2. Over Fjell Og Gjennom Torner

F|----------------------------------------------------------------|.
C|----------------------------------------------------------------|.
G|3-3-3-3-3-3-3-3-3-3-3-3-3-3-3-3-3-3-3-3-3-3-3-3-3-3-3-3-3-3-\---|.
D|----------------------------------------------------------------|.
                                                                   . x8
F|----------------------------------------------------------------|.
C|----------------------------------------------------------------|.
G|----------------------------------------------------------------|.
D|4-4-4-4-4-4-4-4-4-4-4-4-4-4-4-4-4-4-4-4-4-4-4-4-4-4-4-4-4-4-4---|.

0:56

F|----------------------------------------------------------------|
C|----------------------------------------------------------------| x3
G|3-3-3-3-3-3-3-3-3-3-3-3-3-3-3---2-2-2-2-2-2-2-2-2-2-2-2-2-2-2---|
D|----------------------------------------------------------------|

F|----------------------------------------------------------------|.
C|----------------------------------------------------------------|.
G|2-2-2-2-2-2-2-2-2-2-2-2-2-2-2---1-1-1-1-1-1-1-1-1-1-1-1-1-1-1---|.
D|----------------------------------------------------------------|.
                                                                   . x3
F|----------------------------------------------------------------|.
C|----------------------------------------------------------------|.
G|3-3-3-3-3-3-3-3-3-3-3-3-3-3-3---2-2-2-2-2-2-2-2-2-2-2-2-2-2-2---|.
D|----------------------------------------------------------------|.

F|----------------------------------------------------------------|
C|----------------------------------------------------------------|
G|2-2-2-2-2-2-2-2-2-2-2-2-2-2-2---1-1-1-1-1-1-1-1-1-1-1-1-1-1-1---|
D|----------------------------------------------------------------|

1:32

F|----------------------------------------------------------------|.
C|----------------------------------------------------------------|.
G|--------------------------------6-6-6-6-6-6-6-6-6-6-6-6-6-6-6---|.
D|0-0-0-0-0-0-0-0-0-0-0-0-0-0-0-----------------------------------|
                                                                   . x4
F|----------------------------------------------------------------|.
C|----------------------------------------------------------------|.
G|3-3-3-3-3-3-3-3-3-3-3-3-3-3-3---2-2-2-2-2-2-2-------------------|.
D|------------------------------------------------3-------2-------|.

F|----------------------------------------------------------------|
C|----------------------------------------------------------------|
G|----------------------------------------------------------------|
D|0---------------------------------------------------------------|

3. Skald Au Satans Sol

F|----------------------------------------------------------------|
C|----------------------------4---7---4---3-----------------------|
G|0-------1-------0-----------------------------------------------|
D|----------------------------------------------------------------|

F|----------------------------------------------------------------|
C|----------------------------4---7---4---3-3-3-3-3-3-3-3-3-3-3---| x11
G|0-------1-------0-----------------------------------------------|
D|----------------------------------------------------------------|

F|----------------------------------------------------------------|
C|----------------------------------------------------------------| x8
G|----------------------------------------------------------------|
D|0-0-0-0-0-0-0-0-0-0-0-0-0-0-0-0-0-0-0-0-0-0-0-0-0-0-0-0-0-0-0---|

1:10

F|----------------------------------------------------------------|
C|----------------------------4---7---4---3-3-3-3-3-3-3-3-3-3-3---| x8
G|0-------1-------0-----------------------------------------------|
D|----------------------------------------------------------------|

1:39

F|----------------------------------------------------------------|
C|----------------------------------------------------------------| x8
G|----------------------------------------------------------------|
D|0-0-0-0-0-0-0-0-0-0-0-0-0-0-0-0-0-0-0-0-0-0-0-0-0-0-0-0-0-0-0---|

2:06

F|----------------------------------------------------------------|.
C|----------------------------------------------------------------|.
G|6-6-6-6-6-6-6-6-6-6-6-6-6-6-6-6-6-6-6-6-6-6-6-6-6-6-6-6-6-6-6---|.
D|----------------------------------------------------------------|.
                                                                   . x6
F|----------------------------------------------------------------|.
C|----------------------------------------------------------------|.
G|2-2-2-2-2-2-2-2-2-2-2-2-2-2-2-2-2-2-2-2-2-2-2-2-2-2-2-2-2-2-2---|.
D|----------------------------------------------------------------|.

F|----------------------------------------------------------------|
C|----------------------------------------------------------------|
G|6-6-6-6-6-6-6-6-6-6-6-6-6-6-6-6-6-6-6-6-6-6-6-6-6-6-6-6-\-------|
D|----------------------------------------------------------------|

F|----------------------------------------------------------------|
C|----------------------------------------------------------------|
G|2-2-2-2-2-2-2-2-2-2-2-2-2-2-2-2-2-2-2-2-2-2-2-2-2-2-2-2-/-------|
D|----------------------------------------------------------------|

F|----------------------------------------------------------------|
C|----------------------------------------------------------------|
G|6-6-6-6-6-6-6-6-6-6-6-6-6-6-6-6-6-6-6-6-6-6-6-6-6-6-6-6-\-------|
D|----------------------------------------------------------------|

F|----------------------------------------------------------------|
C|----------------------------------------------------------------|
G|2-2-2-2-2-2-2-2-2-2-2-2-2-2-2-2-2-2-2-2-2-2-2-2-2-2-2-2-2-2-2---|
D|----------------------------------------------------------------|

3:02

F|----------------------------------------------------------------|
C|----------------------------------------------------------------|
G|1-1-1-1-1-1-1-1-1-1-1-1-1-1-1-1-1-1-1-1-1-1-1-1-1-1-1-1-1-1-1-1-|
D|----------------------------------------------------------------|

F|----------------------------------------------------------------|
C|----------------------------------------------------------------|
G|1-1-1-1-1-1-1-1-1-1-1-1-1-1-1-----------------------------------|
D|--------------------------------2---------------1---------------|

3:08

F|----------------------------------------------------------------|
C|----------------------------4---7---4---3-3-3-3-3-3-3-3-3-3-3---| x3
G|0-------1-------0-----------------------------------------------|
D|----------------------------------------------------------------|

F|----------------------------------------------------------------|
C|----------------------------4---7---4---3-3-3-3-3-3-3-3-3-3-\---|
G|0-------1-------0-----------------------------------------------|
D|----------------------------------------------------------------|

F|----------------------------------------------------------------|
C|----------------------------4---7---4---3-3-3-3-3-3-3-3-3-3-3---| x2
G|0-------1-------0-----------------------------------------------|
D|----------------------------------------------------------------|

F|----------------------------------------------------------------|
C|----------------------------4---7---4---3-3-3-3-3-3-3-3-\-------| x2
G|0-------1-------0-----------------------------------------------|
D|----------------------------------------------------------------|

3:36

F|----------------------------------------------------------------|
C|----------------------------------------------------------------| x4
G|----------------------------------------------------------------|
D|0-0-0-0-0-0-0-0-0-0-0-0-0-0-0-0-0-0-0-0-0-0-0-0-0-0-0-0-0-0-0---|

F|----------------------------------------------------------------|
C|----------------------------------------------------------------|
G|----------------------------------------------------------------|
D|0-0-0-0-0-0-0-0-0-0-0-0-0-0-0-0-0-0-0-0-0-0-0-0-0-0-0-0-0-0-1---|

F|----------------------------------------------------------------|
C|----------------------------------------------------------------| x3
G|----------------------------------------------------------------|
D|0-0-0-0-0-0-0-0-0-0-0-0-0-0-0-0-0-0-0-0-0-0-0-0-0-0-0-0-0-0-0---|

F|----------------------------------------------------------------|
C|2---------------------------------------------------------------|
G|----------------------------------------------------------------|
D|----------------------------------------------------------------|

4. Slottet I Det Fjerne

F|----------------------------------------------------------------|.
C|----------------------------------------------------------------|.
G|1-1-1-1-1-1-1-1-1-1-1-1-1-1-1-1-1-1-1-1-1-1-1-1-1-1-1-1-1-1-1---|.
D|----------------------------------------------------------------|.
                                                                   . x8
F|----------------------------------------------------------------|.
C|----------------------------------------------------------------|.
G|2-2-2-2-2-2-2-2-2-2-2-2-2-2-2---0-0-0-0-0-0-0-0-0-0-0-0-0-0-0---|.
D|----------------------------------------------------------------|.

0:52

F|----------------------------------------------------------------|.
C|----------------------------------------------------------------|.
G|----------------------------------------------------------------|.
D|2-2-2-2-2-2-2-2-2-2-2-2-2-2-2-2-2-2-2-2-2-2-2-2-2-2-2-2-2-2-2-2-|.
                                                                   .
F|----------------------------------------------------------------|.
C|----------------------------------------------------------------|.
G|----------------------------------------------------------------|.
D|2-2-2-2-2-2-2-2-2-2-2-2-2-2-2-2-2-2-2-2-2-2-2-2-2-2-2-2-2-2-2---|.
                                                                   . x4
F|----------------------------------------------------------------|.
C|----------------------------------------------------------------|.
G|----------------------------------------------------------------|.
D|1-1-1-1-1-1-1-1-1-1-1-1-1-1-1-1-1-1-1-1-1-1-1-1-1-1-1-1-1-1-1-1-|.
                                                                   .
F|----------------------------------------------------------------|.
C|----------------------------------------------------------------|.
G|----------------------------------------------------------------|.
D|1-1-1-1-1-1-1-1-1-1-1-1-1-1-1-1-1-1-1-1-1-1-1-1-1-1-1-1-1-1-1---|.

1:47

F|----------------------------------------------------------------|.
C|----------------------------------------------------------------|.
G|----------------------------------------------------------------|.
D|2-2-2-2-2-2-2-2-2-2-2-2-2-2-2-2-2-2-2-2-2-2-2-2-2-2-2-2-2-2-2---|.
                                                                   .
F|----------------------------------------------------------------|.
C|----------------------------------------------------------------|.
G|5-5-5-5-5-5-5-5-5-5-5-5-5-5-5-5-5-5-5-5-5-5-5-5-5-5-5-5-5-5-5---|.
D|----------------------------------------------------------------|.
                                                                   . X2
F|----------------------------------------------------------------|.
C|----------------------------------------------------------------|.
G|----------------------------------------------------------------|.
D|1-1-1-1-1-1-1-1-1-1-1-1-1-1-1-1-1-1-1-1-1-1-1-1-1-1-1-1-1-1-1---|.
                                                                   .
F|----------------------------------------------------------------|.
C|----------------------------------------------------------------|.
G|----------------------------------------------------------------|.
D|3-3-3-3-3-3-3-3-3-3-3-3-3-3-3-3-3-3-3-3-3-3-3-3-3-3-3-3-3-3-3---|.

2:16

F|----------------------------------------------------------------|.
C|----------------------------------------------------------------|.
G|1-1-1-1-1-1-1-1-1-1-1-1-1-1-1-1-1-1-1-1-1-1-1-1-1-1-1-1-1-1-1---|.
D|----------------------------------------------------------------|.
                                                                   . x4
F|----------------------------------------------------------------|.
C|----------------------------------------------------------------|.
G|2-2-2-2-2-2-2-2-2-2-2-2-2-2-2---0-0-0-0-0-0-0-0-0-0-0-0-0-0-0---|.
D|----------------------------------------------------------------|.

2:43

F|----------------------------------------------------------------|.
C|----------------------------------------------------------------|.
G|----------------------------------------------------------------|.
D|2-2-2-2-2-2-2-2-2-2-2-2-2-2-2-2-2-2-2-2-2-2-2-2-2-2-2-2-2-2-2-2-|.
                                                                   .
F|----------------------------------------------------------------|.
C|----------------------------------------------------------------|.
G|----------------------------------------------------------------|.
D|2-2-2-2-2-2-2-2-2-2-2-2-2-2-2-2-2-2-2-2-2-2-2-2-2-2-2-2-2-2-2---|.
                                                                   . x4
F|----------------------------------------------------------------|.
C|----------------------------------------------------------------|.
G|----------------------------------------------------------------|.
D|1-1-1-1-1-1-1-1-1-1-1-1-1-1-1-1-1-1-1-1-1-1-1-1-1-1-1-1-1-1-1-1-|.
                                                                   .
F|----------------------------------------------------------------|.
C|----------------------------------------------------------------|.
G|----------------------------------------------------------------|.
D|1-1-1-1-1-1-1-1-1-1-1-1-1-1-1-1-1-1-1-1-1-1-1-1-1-1-1-1-1-1-1---|.

3:24

F|----------------------------------------------------------------|.
C|----------------------------------------------------------------|.
G|----------------------------------------------------------------|.
D|2-2-2-2-2-2-2-2-2-2-2-2-2-2-2-2-2-2-2-2-2-2-2-2-2-2-2-2-2-2-2---|.
                                                                   .
F|----------------------------------------------------------------|.
C|----------------------------------------------------------------|.
G|5-5-5-5-5-5-5-5-5-5-5-5-5-5-5-5-5-5-5-5-5-5-5-5-5-5-5-5-5-5-5---|.
D|----------------------------------------------------------------|.
                                                                   . X3
F|----------------------------------------------------------------|.
C|----------------------------------------------------------------|.
G|----------------------------------------------------------------|.
D|1-1-1-1-1-1-1-1-1-1-1-1-1-1-1-1-1-1-1-1-1-1-1-1-1-1-1-1-1-1-1---|.
                                                                   .
F|----------------------------------------------------------------|.
C|----------------------------------------------------------------|.
G|----------------------------------------------------------------|.
D|3-3-3-3-3-3-3-3-3-3-3-3-3-3-3-3-3-3-3-3-3-3-3-3-3-3-3-3-3-3-3---|.

F|----------------------------------------------------------------|
C|----------------------------------------------------------------|
G|----------------------------------------------------------------|
D|2-2-2-2-2-2-2-2-2-2-2-2-2-2-2-2-2-2-2-2-2-2-2-2-2-2-2-2-2-2-2---|
 
F|----------------------------------------------------------------|
C|----------------------------------------------------------------|
G|5-5-5-5-5-5-5-5-5-5-5-5-5-5-5---7-7-7-7-7-7-7---5-5-5-5-5-5-5---|
D|----------------------------------------------------------------|

F|----------------------------------------------------------------|
C|----------------------------------------------------------------|
G|----------------------------------------------------------------|
D|1-1-1-1-1-1-1-1-1-1-1-1-1-1-1-1-1-1-1-1-1-1-1-1-1-1-1-1-1-1-1---|

F|----------------------------------------------------------------|
C|----------------------------------------------------------------|
G|----------------------------------------------------------------|
D|3-3-3-3-3-3-3-3-3-3-3-3-3-3-3-3-3-3-3-3-3-3-3-3-3-3-3-3-3-3-3---|

F|----------------------------------------------------------------|
C|----------------------------------------------------------------|
G|----------------------------------------------------------------|
D|2---------------------------------------------------------------|

5. Graven Takeheimens Saler

F|----------------------------------------------------------------|.
C|----------------------------------------------------------------|.
G|----------------------------------------------------------------|.
D|2-2-2-2-2-2-2-2-2-2-2-2-2-2-2---5-5-5-5-5-5-5-5-5-5-5-5-5-5-5-5-|.
                                                                   . x8
F|----------------------------------------------------------------|.
C|----------------------------------------------------------------|.
G|----------------------------------------------------------------|.
D|5-5-5-5-5-5-5---4-4-4-4-4-4-4---1-1-1-1-1-1-1-1-1-1-1-1-1-1-1---|.

0:52

F|----------------------------------------------------------------|.
C|----------------------------------------------------------------|.
G|----------------------------------------------------------------|.
D|2-------2-------2-------2-------2-------2-------2-------2-------|.
                                                                   . x4
F|----------------------------------------------------------------|.
C|----------------------------------------------------------------|.
G|----------------------------------------------------------------|.
D|2-------2-------2-------2-------1-------1-------3-------3-------|.

1:21

F|----------------------------------------------------------------|.
C|----------------------------------------------------------------|.
G|----------------------------------------------------------------|.
D|2-2-2-2-2-2-2-2-2-2-2-2-2-2-2---5-5-5-5-5-5-5-5-5-5-5-5-5-5-5-5-|.
                                                                   . x4
F|----------------------------------------------------------------|.
C|----------------------------------------------------------------|.
G|----------------------------------------------------------------|.
D|5-5-5-5-5-5-5---4-4-4-4-4-4-4---1-1-1-1-1-1-1-1-1-1-1-1-1-1-1---|.

1:49

F|----------------------------------------------------------------|.
C|----------------------------------------------------------------|.
G|----------------------------------------------------------------|.
D|2-------2-------2-------2-------2-------2-------2-------2-------|.
                                                                   . x4
F|----------------------------------------------------------------|.
C|----------------------------------------------------------------|.
G|----------------------------------------------------------------|.
D|2-------2-------2-------2-------1-------1-------3-------3-------|.

2:17

F|----------------------------------------------------------------|.
C|----------------------------------------------------------------|.
G|4-4-4-4-4-4-4-4-4-4-4-4-4-4-4-4-4-4-4-4-4-4-4-4-4-4-4-4-4-4-4---|.
D|----------------------------------------------------------------|.
                                                                   . x8
F|----------------------------------------------------------------|.
C|----------------------------------------------------------------|.
g|5-5-5-5-5-5-5-5-5-5-5-5-5-5-5-5-5-5-5-5-5-5-5-5-5-5-5-5-5-5-5---|.
D|----------------------------------------------------------------|.

3:15

F|----------------------------------------------------------------|.
C|----------------------------------------------------------------|.
G|----------------------------------------------------------------|.
D|2-------2-------2-------2-------2-------2-------2-------2-------|.
                                                                   . x4
F|----------------------------------------------------------------|.
C|----------------------------------------------------------------|.
G|----------------------------------------------------------------|.
D|2-------2-------2-------2-------1-------1-------3-------3-------|.

3:43

F|----------------------------------------------------------------|.
C|----------------------------------------------------------------|.
G|----------------------------------------------------------------|.
D|2-2-2-2-2-2-2-2-2-2-2-2-2-2-2---5-5-5-5-5-5-5-5-5-5-5-5-5-5-5-5-|.
                                                                   . x8
F|----------------------------------------------------------------|.
C|----------------------------------------------------------------|.
G|----------------------------------------------------------------|.
D|5-5-5-5-5-5-5---4-4-4-4-4-4-4---1-1-1-1-1-1-1-1-1-1-1-1-1-1-1---|.

F|----------------------------------------------------------------|
C|----------------------------------------------------------------|
G|----------------------------------------------------------------|
D|2---------------------------------------------------------------|

6. I En Hall Med Flesk Og Mjod

br - bend and release

F|----------------------------------------------------------------|
C|----------------------------------------------------------------|
G|----------------------------------------------------------------|
D|4-4-4-4-4-4-4-4-4-4-4-4-4-4-4-4-4-4-4-4-4-4-4-4-4-4-4-4-4-4-4---|

F|----------------------------------------------------------------|
C|----------------------------------------------------------------|
G|----------------------------------------------------------------|
D|4-4-4-4-4-4-4-4-4-4-4-4-4-4-4-4-4-4-4-4-4-4-4-4-4-4-4-4-4-4-4---|

F|----------------------------------------------------------------|
C|----------------------------------------------------------------|
G|----------------------------------------------------------------|
D|4-4-4-4-4-4-4-4-4-4-4-4-4-4-4-4-4-4-4-4-4-4-4-4-4-4-4-4-4-4-4---|

F|----------------------------------------------------------------|
C|----------------------------------------------------------------|
G|----------------2-2-2-2-2-2-2---0-0-0-0-0-0-0-------------------|
D|4-4-4-4-4-4-4-----------------------------------4br-------------|

F|----------------------------------------------------------------|
C|----------------------------------------------------------------|
G|----------------------------------------------------------------|
D|4-4-4-4-4-4-4-4-4-4-4-4-4-4-4-4-4-4-4-4-4-4-4-4-4-4-4-4-4-4-4---|

F|----------------------------------------------------------------|
C|----------------------------------------------------------------|
G|----------------------------------------------------------------|
D|4-4-4-4-4-4-4-4-4-4-4-4-4-4-4-4-4-4-4-4-4-4-4-4-4-4-4-4-4-4-4---|

F|----------------------------------------------------------------|
C|----------------------------------------------------------------|
G|----------------------------------------------------------------|
D|3-4-4-4-4-4-4-4-4-4-4-4-4-4-4-4-4-4-4-4-4-4-4-4-4-4-4-4-4-4-4---|

F|----------------------------------------------------------------|
C|----------------------------------------------------------------|
G|----------------2-2-2-2-2-2-2---0-0-0-0-0-0-0-------------------|
D|4-4-4-4-4-4-4-----------------------------------4br-------------|

F|----------------------------------------------------------------|
C|----------------------------------------------------------------|
G|----------------------------------------------------------------|
D|4-4-4-4-4-4-4-4-4-4-4-4-4-4-4-4-4-4-4-4-4-4-4-4-4-4-4-4-4-4-4---|

F|----------------------------------------------------------------|
C|----------------------------------------------------------------|
G|----------------------------------------------------------------|
D|4-4-4-4-4-4-4-4-4-4-4-4-4-4-4-4-4-4-4-4-4-4-4-4-4-4-4-4-4-4-4---|

F|----------------------------------------------------------------|
C|----------------------------------------------------------------|
G|----------------------------------------------------------------|
D|4-4-4-4-4-4-4-4-4-4-4-4-4-4-4-4-4-4-4-4-4-4-4-4-4-4-4-4-4-4-4---|

F|----------------------------------------------------------------|
C|----------------------------------------------------------------|
G|----------------2-2-2-2-2-2-2---0-0-0-0-0-0-0-------------------|
D|4-4-4-4-4-4-4-----------------------------------4br-------------|

F|----------------------------------------------------------------|
C|----------------------------------------------------------------|
G|----------------------------------------------------------------|
D|4-4-4-4-4-4-4-4-4-4-4-4-4-4-4-4-4-4-4-4-4-4-4-4-4-4-4-4-4-4-4---|

F|----------------------------------------------------------------|
C|----------------------------------------------------------------|
G|----------------------------------------------------------------|
D|4-4-4-4-4-4-4-4-4-4-4-4-4-4-4-4-4-4-4-4-4-4-4-4-4-4-4-4-4-4-4---|

F|----------------------------------------------------------------|
C|----------------------------------------------------------------|
G|----------------------------------------------------------------|
D|3-4-4-4-4-4-4-4-4-4-4-4-4-4-4-4-4-4-4-4-4-4-4-4-4-4-4-4-4-4-4---|

F|----------------------------------------------------------------|
C|----------------------------------------------------------------|
G|----------------2-2-2-2-2-2-2---0-0-0-0-0-0-0-------------------|
D|4-4-4-4-4-4-4-----------------------------------4br-------------|

0:56

F|----------------------------------------------------------------|
C|----------------------------------------------------------------| x8
G|----------------------------------------------------------------|
D|3---3---3---3---4---3---3---3---3---0---0---0---0---1---1---1---|

1:26

F|----------------------------------------------------------------|
C|----------------------------------------------------------------|
G|----------------------------------------------------------------|
D|4-4-4-4-4-4-4-4-4-4-4-4-4-4-4-4-4-4-4-4-4-4-4-4-4-4-4-4-4-4-4---|

F|----------------------------------------------------------------|
C|----------------------------------------------------------------|
G|----------------------------------------------------------------|
D|4-4-4-4-4-4-4-4-4-4-4-4-4-4-4-4-4-4-4-4-4-4-4-4-4-4-4-4-4-4-4---|

F|----------------------------------------------------------------|
C|----------------------------------------------------------------|
G|----------------------------------------------------------------|
D|3-4-4-4-4-4-4-4-4-4-4-4-4-4-4-4-4-4-4-4-4-4-4-4-4-4-4-4-4-4-4---|

F|----------------------------------------------------------------|
C|----------------------------------------------------------------|
G|----------------2-2-2-2-2-2-2---0-0-0-0-0-0-0-------------------|
D|4-4-4-4-4-4-4-----------------------------------4br-------------|

F|----------------------------------------------------------------|
C|----------------------------------------------------------------|
G|----------------------------------------------------------------|
D|4-4-4-4-4-4-4-4-4-4-4-4-4-4-4-4-4-4-4-4-4-4-4-4-4-4-4-4-4-4-4---|

F|----------------------------------------------------------------|
C|----------------------------------------------------------------|
G|----------------------------------------------------------------|
D|4-4-4-4-4-4-4-4-4-4-4-4-4-4-4-4-4-4-4-4-4-4-4-4-4-4-4-4-4-4-4---|

F|----------------------------------------------------------------|
C|----------------------------------------------------------------|
G|----------------------------------------------------------------|
D|4-4-4-4-4-4-4-4-4-4-4-4-4-4-4-4-4-4-4-4-4-4-4-4-4-4-4-4-4-4-4---|

F|----------------------------------------------------------------|
C|----------------------------------------------------------------|
G|----------------2-2-2-2-2-2-2---0-0-0-0-0-0-0-------------------|
D|4-4-4-4-4-4-4-----------------------------------4br-------------|

F|----------------------------------------------------------------|
C|----------------------------------------------------------------|
G|----------------------------------------------------------------|
D|4-4-4-4-4-4-4-4-4-4-4-4-4-4-4-4-4-4-4-4-4-4-4-4-4-4-4-4-4-4-4---|

F|----------------------------------------------------------------|
C|----------------------------------------------------------------|
G|----------------------------------------------------------------|
D|3-4-4-4-4-4-4-4-4-4-4-4-4-4-4-4-4-4-4-4-4-4-4-4-4-4-4-4-4-4-4---|

F|----------------------------------------------------------------|
C|----------------------------------------------------------------|
G|----------------------------------------------------------------|
D|4-4-4-4-4-4-4-4-4-4-4-4-4-4-4-4-4-4-4-4-4-4-4-4-4-4-4-4-4-4-4---|

F|----------------------------------------------------------------|
C|----------------------------------------------------------------|
G|----------------2-2-2-2-2-2-2---0-0-0-0-0-0-0-------------------|
D|4-4-4-4-4-4-4-----------------------------------4br-------------|

F|----------------------------------------------------------------|
C|----------------------------------------------------------------|
G|----------------------------------------------------------------|
D|4-4-4-4-4-4-4-4-4-4-4-4-4-4-4-4-4-4-4-4-4-4-4-4-4-4-4-4-4-4-4---|

F|----------------------------------------------------------------|
C|----------------------------------------------------------------|
G|----------------------------------------------------------------|
D|3-4-4-4-4-4-4-4-4-4-4-4-4-4-4-4-4-4-4-4-4-4-4-4-4-4-4-4-4-4-4---|

F|----------------------------------------------------------------|
C|----------------------------------------------------------------|
G|----------------------------------------------------------------|
D|3-4-4-4-4-4-4-4-4-4-4-4-4-4-4-4-4-4-4-4-4-4-4-4-4-4-4-4-4-4-4---|

F|----------------------------------------------------------------|
C|----------------------------------------------------------------|
G|----------------2-2-2-2-2-2-2---0-0-0-0-0-0-0-------------------|
D|4-4-4-4-4-4-4-----------------------------------4br-------------|

2:24

F|----------------------------------------------------------------|
C|----------------------------------------------------------------| x8
G|----------------------------------------------------------------|
D|3---3---3---3---4---3---3---3---3---0---0---0---0---1---1---1---|

2:52

F|----------------------------------------------------------------|.
C|----------------------------------------------------------------|.
G|1-1-1-1-1-1-1-1-1-1-1-1-1-1-1-1-1-1-1-1-1-1-1-1-1-1-1-1-1-1-1---|.
D|----------------------------------------------------------------|.
                                                                   . x3
F|----------------------------------------------------------------|.
C|----------------------------------------------------------------|.
G|6-6-6-6-6-6-6---5-------1-------5-5-5-5-5-5-5---4-------0-------|.
D|----------------------------------------------------------------|.

F|----------------------------------------------------------------|
C|----------------------------------------------------------------|
G|1-1-1-1-1-1-1-1-1-1-1-1-1-1-1-1-1-1-1-1-1-1-1-1-1-1-1-1-1-1-/---|
D|----------------------------------------------------------------|

F|----------------------------------------------------------------|
C|----------------------------------------------------------------|
G|6-6-6-6-6-6-6---5-------1-------5-5-5-5-5-5-5---4-------0-------|
D|----------------------------------------------------------------|

F|----------------------------------------------------------------|
C|----------------------------------------------------------------|
G|1-1-1-1-1-1-1-1-1-1-1-1-1-1-1-1-1-1-1-1-1-1-1-1-1-1-1-1-/---\---|
D|----------------------------------------------------------------|

F|----------------------------------------------------------------|
C|----------------------------------------------------------------|
G|6-6-6-6-6-6-6---5-------1-------5-5-5-5-5-5-5---4-------0-------|
D|----------------------------------------------------------------|

F|----------------------------------------------------------------|.
C|----------------------------------------------------------------|.
G|1-1-1-1-1-1-1-1-1-1-1-1-1-1-1-1-1-1-1-1-1-1-1-1-1-1-1-1-1-1-1---|.
D|----------------------------------------------------------------|.
                                                                   . x3
F|----------------------------------------------------------------|.
C|----------------------------------------------------------------|.
G|6-6-6-6-6-6-6---5-------1-------5-5-5-5-5-5-5---4-------0-------|.
D|----------------------------------------------------------------|.

3:51

F|----------------------------------------------------------------|.
C|----------------------------------------------------------------|.
G|----------------------------------------------------------------|.
D|4-4-4-4-4-4-4-4-4-4-4-4-4-4-4-4-4-4-4-4-4-4-4-4-4-4-4-4-4-4-4---|.
                                                                   .
F|----------------------------------------------------------------|.
C|----------------------------------------------------------------|.
G|----------------------------------------------------------------|.
D|4-4-4-4-4-4-4-4-4-4-4-4-4-4-4-4-4-4-4-4-4-4-4-4-4-4-4-4-4-4-4---|.
                                                                   . x2
F|----------------------------------------------------------------|.
C|----------------------------------------------------------------|.
G|----------------------------------------------------------------|.
D|4-4-4-4-4-4-4-4-4-4-4-4-4-4-4-4-4-4-4-4-4-4-4-4-4-4-4-4-4-4-4---|.
                                                                   .
F|----------------------------------------------------------------|.
C|----------------------------------------------------------------|.
G|----------------2-2-2-2-2-2-2---0-0-0-0-0-0-0-------------------|.
D|4-4-4-4-4-4-4-----------------------------------4br-------------|.

F|----------------------------------------------------------------|
C|----------------------------------------------------------------|
G|----------------------------------------------------------------|
D|4-4-4-4-4-4-4-4-4-4-4-4-4-4-4-4-4-4-4-4-4-4-4-4-4-4-4-4-4-4-4---|

F|----------------------------------------------------------------|
C|----------------------------------------------------------------|
G|----------------------------------------------------------------|
D|3-4-4-4-4-4-4-4-4-4-4-4-4-4-4-4-4-4-4-4-4-4-4-4-4-4-4-4-4-4-4---|

F|----------------------------------------------------------------|
C|----------------------------------------------------------------|
G|----------------------------------------------------------------|
D|4-4-4-4-4-4-4-4-4-4-4-4-4-4-4-4-4-4-4-4-4-4-4-4-4-4-4-4-4-4-4---|

F|----------------------------------------------------------------|
C|----------------------------------------------------------------|
G|----------------2-2-2-2-2-2-2---0-0-0-0-0-0-0-------------------|
D|4-4-4-4-4-4-4-----------------------------------4br-------------|

F|----------------------------------------------------------------|
C|----------------------------------------------------------------|
G|----------------------------------------------------------------|
D|4-4-4-4-4-4-4-4-4-4-4-4-4-4-4-4-4-4-4-4-4-4-4-4-4-4-4-4-4-4-4---|

F|----------------------------------------------------------------|
C|----------------------------------------------------------------|
G|----------------------------------------------------------------|
D|4-4-4-4-4-4-4-4-4-4-4-4-4-4-4-4-4-4-4-4-4-4-4-4-4-4-4-4-4-4-4---|

F|----------------------------------------------------------------|
C|----------------------------------------------------------------|
G|----------------------------------------------------------------|
D|3-4-4-4-4-4-4-4-4-4-4-4-4-4-4-4-4-4-4-4-4-4-4-4-4-4-4-4-4-4-4---|

F|----------------------------------------------------------------|
C|----------------------------------------------------------------|
G|----------------2-2-2-2-2-2-2---0-0-0-0-0-0-0-------------------|
D|4-4-4-4-4-4-4-----------------------------------4br-------------|

F|----------------------------------------------------------------|
C|----------------------------------------------------------------|
G|----------------------------------------------------------------|
D|4-4-4-4-4-4-4-4-4-4-4-4-4-4-4-4-4-4-4-4-4-4-4-4-4-4-4-4-4-4-4---|

F|----------------------------------------------------------------|
C|----------------------------------------------------------------|
G|----------------------------------------------------------------|
D|4-4-4-4-4-4-4-4-4-4-4-4-4-4-4-4-4-4-4-4-4-4-4-4-4-4-4-4-4-4-4---|

F|----------------------------------------------------------------|
C|----------------------------------------------------------------|
G|----------------------------------------------------------------|
D|3-4-4-4-4-4-4-4-4-4-4-4-4-4-4-4-4-4-4-4-4-4-4-4-4-4-4-4-4-4-4---|

F|----------------------------------------------------------------|
C|----------------------------------------------------------------|
G|----------------2-2-2-2-2-2-2---0-0-0-0-0-0-0-------------------|
D|4-4-4-4-4-4-4-----------------------------------4br-------------|

F|----------------------------------------------------------------|
C|----------------------------------------------------------------|
G|----------------------------------------------------------------|
D|4---------------------------------------------------------------|

F|----------------------------------------------------------------|
C|----------------------------------------------------------------|
G|----------------------------------------------------------------|
D|----------------------------------------------------------------|

F|----------------------------------------------------------------|
C|----------------------------------------------------------------|
G|----------------------------------------------------------------|
D|----------------------------------------4-----------------------|

7. As Flittermice As Satans Spys

F|----------------------------------------------------------------|
C|----------------------------------------------------------------| x16
G|5-5-5-5-5-5-5-5-5-5-5-5-5-5-5-5-5-5-5-5-5-5-5-5-5-5-5-5-5-5-5---|
C|----------------------------------------------------------------|

0:51

F|----------------------------------------------------------------|
C|----------------------------------------------------------------| x8
G|5-5-5-5-5-5-5-5-5-5-5-5-5-5-5-------------------5-5-5-5-5-5-5---|
C|--------------------------------0-------------------------------|

1:18

F|----------------------------------------------------------------|
C|----------------------------------------------------------------| x12
G|5-5-5-5-5-5-5-5-5-5-5-5-5-5-5-5-5-5-5-5-5-5-5-5-5-5-5-5-5-5-5---|
C|0---------------------------------------------------------------|

1:56

F|----------------------------------------------------------------|.
C|----------------------------------------------------------------|.
G|6-6-6-6-6-6-6-6-6-6-6-6-6-6-6-6-6-6-6-6-6-6-6---3-3-3-3-3-3-3---|.
C|----------------------------------------------------------------|.
                                                                   . x4
F|----------------------------------------------------------------|.
C|4-4-4-4-4-4-4-4-4-4-4-4-4-4-4-4-4-4-4-4-4-4-4-4-4-4-4-4-4-4-4---|.
G|----------------------------------------------------------------|.
C|----------------------------------------------------------------|.

2:23

F|----------------------------------------------------------------|.
C|----------------------------------------------------------------|.
G|7-7-7-7-7-7-7-7-7-7-7-7-7-7-7-7-7-7-7-7-7-7-7---6-6-6-6-6-6-6---|.
C|----------------------------------------------------------------|.
                                                                   . x4
F|----------------------------------------------------------------|.
C|5-5-5-5-5-5-5-5-5-5-5-5-5-5-5-5-5-5-5-5-5-5-5-5-5-5-5-5-5-5-5---|.
G|----------------------------------------------------------------|.
C|----------------------------------------------------------------|.

2:49

F|----------------------------------------------------------------|
C|--------------------------------4-4-4-4-4-4-4-4-4-4-4-4-4-4-4---| x2
G|6-6-6-6-6-6-6-6-6-6-6---3---------------------------------------|
C|----------------------------------------------------------------|

F|----------------------------------------------------------------|
C|----------------------------------------------------------------| x2
G|6-6-6-6-6-6-6-6-6-6-6---3---------------------------------------|
C|--------------------------------4-4-4-4-4-4-4-4-4-4-4-4-4-4-4---|

F|----------------------------------------------------------------|
C|--------------------------------5-5-5-5-5-5-5-5-5-5-5-5-5-5-5---| x4
G|7-7-7-7-7-7-7-7-7-7-7---6---------------------------------------|
C|----------------------------------------------------------------|

F|----------------------------------------------------------------|
C|--------------------------------4-4-4-4-4-4-4-4-4-4-4-4-4-4-4---|
G|6-6-6-6-6-6-6-6-6-6-6---3---------------------------------------|
C|----------------------------------------------------------------|

F|----------------------------------------------------------------|
C|----------------------------------------------------------------| x2
G|6-6-6-6-6-6-6-6-6-6-6---3---------------------------------------|
C|--------------------------------4-4-4-4-4-4-4-4-4-4-4-4-4-4-4---|

F|----------------------------------------------------------------|
C|----------------------------------------------------------------|
G|6-6-6-6-6-6-6-6-6-6-6-6-6-6-6-6-6-------------------------------|
C|----------------------------------------------------------------|

F|----------------------------------------------------------------|
C|----------------------------------------------------------------| x3
G|5-------5---5---5---5---5---5---5---5---5---5---5---5---5---5---|
C|0---------------------------------------------------------------|

F|----------------------------------------------------------------|
C|----------------------------------------------------------------|
G|5-------5---5---5---5---5---5---5---5---5---5---/---------------|
C|0---------------------------------------------------------------|

3:42

F|----------------------------------------------------------------|
C|----------------------------------------------------------------| x4
G|5-5-5-5-5-5-5-5-5-5-5-5-5-5-5-5-5-5-5-5-5-5-5-5-5-5-5-5-5---3---|
C|----------------------------------------------------------------|

F|----------------------------------------------------------------|
C|----------------------------------------------------------------| x7
G|5-5-5-5-5-5-5-5-5-5-5-5-5-5-5-------------------5-5-5-5-5-5-5---|
C|--------------------------------0-------------------------------|

F|----------------------------------------------------------------|
C|----------------------------------------------------------------|
G|5-5-5-5-5-5-5-5-5-5-5-5-5-5-5-5-5-5-5-5-5-5-5-5-\---------------|
C|--------------------------------------------------------0-------|

F|----------------------------------------------------------------|
C|----------------------------------------------------------------| x3
G|5-5-5-5-5-5-5-5-5-5-5-5-5-5-5-5-5-5-5-5-5-5-5-5-5-5-5-5-5---3---|
C|----------------------------------------------------------------|

F|----------------------------------------------------------------|
C|----------------------------------------------------------------|
G|5-5-5-5-5-5-5-5-5-5-5-5-5-5-5-5-5-5-5-5-5-5-5-5-5-5-5-5-5-5-5---|
C|----------------------------------------------------------------|

4:36

F|----------------------------------------------------------------|
C|----------------4-4-4-4-4-4-4-------------------4-4-4-4-4-4-4---|
G|5-5-5-5-5-5-5-------------------7-7-7-7-7-7-7-------------------|
C|----------------------------------------------------------------|

F|----------------------------------------------------------------|
C|----------------4-4-4-4-4-4-4-----------------------------------| x5
G|5-5-5-5-5-5-5-------------------7-7-7-7-7-7-7---5-5-5-5-5-5-5---|
C|----------------------------------------------------------------|

4:55

F|----------------------------------------------------------------|
C|----------------------------------------------------------------|
G|5-5-5-5-5-5-5-\-------------------------------------------------|
C|------------------0-0-0-0-0-0-0-0-0-0-0-0-0-0-0-0-0-0-0-0-0-0---|

F|----------------------------------------------------------------|
C|----------------------------------------------------------------|
G|5-5-5-5-5-5-5-5-5-5-5-5-5-5-\-----------------------------------|
C|--------------------------------0-0-0-0-0-0-0-0-0-0-0-0-0-0-/---|

F|----------------------------------------------------------------|
C|----------------4-4-4-4-4-4-4-----------------------------------|
G|5-5-5-5-5-5-5-------------------7-7-7-7-7-7-7-7-7-7-7-7-7-7-7---|
C|----------------------------------------------------------------|

F|----------------------------------------------------------------|
C|----------------4-4-4-4-4-4-4-----------------------------------|
G|5-5-5-5-5-5-5-------------------7-7-7-7-7-7-7---5-5-5-5-5-5-5---|
C|----------------------------------------------------------------|

F|----------------------------------------------------------------|
C|----------------------------------------------------------------|
G|5-5-5-5-5-5-5-5-5-5-5-5-5-5-5-5-5-5-5-5-5-5-5-5-5-5-5-5-5-5-5---|
C|----------------------------------------------------------------|

F|----------------------------------------------------------------|
C|----------------------------------------------------------------|
G|5-5-5-5-5-5-5-5-5-5-5-5-5-5-5-------------------5-5-5-5-5-5-5---|
C|--------------------------------0-------------------------------|

F|----------------------------------------------------------------|
C|----------------4-4-4-4-4-4-4-----------------------------------| x4
G|5-5-5-5-5-5-5-------------------7-7-7-7-7-7-7---5-5-5-5-5-5-5---|
C|----------------------------------------------------------------|

F|----------------------------------------------------------------|
C|----------------------------------------------------------------|
G|5---------------------------------------------------------------|
C|----------------------------------------------------------------|

8. En As I Dype Skogen

F|----------------------------------------------------------------|.
C|----------------------------------------------------------------|.
G|2-2-2-2-2-2-2-2-2-2-2-2-2-2-2-2-2-2-2-2-2-2-2-2-2-2-2-2-2-2-2---|.
D|----------------------------------------------------------------|.
                                                                   . x3
F|----------------------------------------------------------------|.
C|----------------------------------------------------------------|.
G|3-3-3-3-3-3-3-3-3-3-3-3-3-3-3-3-3-3-3-3-3-3-3-3-3-3-3-3-3-3-3---|.
D|----------------------------------------------------------------|.

F|----------------------------------------------------------------|
C|----------------------------------------------------------------|
G|2-2-2-2-2-2-2-2-2-2-2-2-2-2-2-2-2-2-2-2-2-2-2-2-2-2-2-2-2-2-2---|
D|----------------------------------------------------------------|

F|----------------------------------------------------------------|
C|----------------------------------------------------------------|
G|3-3-3-3-3-3-3-3-3-3-3-3-3-3-3-3-3-3-3-3-3-3-3-3-/---\-----------|
D|----------------------------------------------------------------|

0:26

F|----------------------------------------------------------------|.
C|----------------------------------------------------------------|.
G|7-7-7-7-7-7-7-7-7-7-7-7-7-7-7-7-7-7-7-7-7-7-7-7-7-7-7-7-7-7-7---|.
D|----------------------------------------------------------------|.
                                                                   . x3
F|----------------------------------------------------------------|.
C|----------------------------------------------------------------|.
G|3-3-3-3-3-3-3-3-3-3-3-3-3-3-3-3-3-3-3-3-3-3-3-3-3-3-3-3-3-3-3---|.
D|----------------------------------------------------------------|.

F|----------------------------------------------------------------|
C|----------------------------------------------------------------|
G|7-7-7-7-7-7-7-7-7-7-7-7-7-7-7-7-7-7-7-7-7-7-7-7-7-7-7-7-\-------|
D|----------------------------------------------------------------|

F|----------------------------------------------------------------|
C|----------------------------------------------------------------|
G|3-3-3-3-3-3-3-3-3-3-3-3-3-3-3-3-3-3-3-3-3-3-3-3-/---\-----------|
D|----------------------------------------------------------------|

0:51

F|----------------------------------------------------------------|.
C|----------------------------------------------------------------|.
G|2-2-2-2-2-2-2-2-2-2-2-2-2-2-2-2-2-2-2-2-2-2-2-2-2-2-2-2-2-2-2---|.
D|----------------------------------------------------------------|.
                                                                   . x2
F|----------------------------------------------------------------|.
C|----------------------------------------------------------------|.
G|3-3-3-3-3-3-3-3-3-3-3-3-3-3-3-3-3-3-3-3-3-3-3-3-3-3-3-3-3-3-3---|.
D|----------------------------------------------------------------|.

1:04

F|----------------------------------------------------------------|
C|----------------------------------------------------------------|
G|2-2-2-2-2-2-2-2-2-2-2-2-2-2-2-2-2-2-2-2-2-2-2-2-2-2-2-2-2-2-2---|
D|----------------------------------------------------------------|

F|----------------------------------------------------------------|
C|----------------------------------------------------------------|
G|----------------------------------------------------------------|
D|3-3-3-3-3-3-3-3-3-3-3-3-3-3-3-3-3-3-3-3-3-3-3-2-2-2-2-2-2-2-2---|

F|----------------------------------------------------------------|.
C|----------------------------------------------------------------|.
G|2-2-2-2-2-2-2-2-2-2-2-2-2-2-2---7-7-7-7-7-7-7-7-7-7-7-7-7-7-\---|.
D|----------------------------------------------------------------|.
                                                                   . x3
F|----------------------------------------------------------------|.
C|----------------------------------------------------------------|.
G|3-3-3-3-3-3-3-3-3-3-3-3-3-3-3-----------------------------------|.
D|--------------------------------3-3-3-3-3-3-3-3-3-3-3-3-3-3-3---|.

1:32

F|----------------------------------------------------------------|
C|----------------------------------------------------------------|
G|2-2-2-2-2-2-2-2-2-2-2-2-2-2-2-2-2-2-2-2-2-2-2-2-2-2-2-2-2-2-2---|
D|----------------------------------------------------------------|

F|----------------------------------------------------------------|
C|----------------------------------------------------------------|
G|3-3-3-3-3-3-3-3-3-3-3-3-3-3-3-3-3-3-3-3-3-3-3-3-3-3-3-3-3-3-3---|
D|----------------------------------------------------------------|

F|----------------------------------------------------------------|
C|----------------------------------------------------------------|
G|7-7-7-7-7-7-7-7-7-7-7-7-7-7-7-7-7-7-7-7-7-7-7-7-7-7-7-7-7-7-7---|
D|----------------------------------------------------------------|

F|----------------------------------------------------------------|
C|----------------------------------------------------------------|
G|3-3-3-3-3-3-3-3-3-3-3-3-3-3-3-3-3-3-3-3-3-3-3-3-3-3-3-3-3-3-3---|
D|----------------------------------------------------------------|

F|----------------------------------------------------------------|
C|----------------------------------------------------------------|
G|2-2-2-2-2-2-2-2-2-2-2-2-2-2-2-2-2-2-2-2-2-2-2-2-2-2-2-2-2-2-2---|
D|----------------------------------------------------------------|

F|----------------------------------------------------------------|
C|----------------------------------------------------------------|
G|3-3-3-3-3-3-3-3-3-3-3-3-3-3-3-3-3-3-3-3-3-3-3-3-3-3-3-3-3-3-3---|
D|----------------------------------------------------------------|

F|----------------------------------------------------------------|
C|----------------------------------------------------------------|
G|7-7-7-7-7-7-7-7-7-7-7-7-7-7-7-7-7-7-7-7-7-7-7-7-7-7-7-7-\-------|
D|----------------------------------------------------------------|

F|----------------------------------------------------------------|
C|----------------------------------------------------------------|
G|3-3-3-3-3-3-3-3-3-3-3-3-3-3-3-3-3-3-3-3-3-3-3-3-3-3-3-3-3-3-3---|
D|----------------------------------------------------------------|

1:58

F|----------------------------------------------------------------|.
C|----------------------------------------------------------------|.
G|2-2-2-2-2-2-2-2-2-2-2-2-2-2-2-2-2-2-2-2-2-2-2-2-2-2-2-2-2-2-2---|.
D|----------------------------------------------------------------|.
                                                                   . x2
F|----------------------------------------------------------------|.
C|----------------------------------------------------------------|.
G|3-3-3-3-3-3-3-3-3-3-3-3-3-3-3-3-3-3-3-3-3-3-3-3-3-3-3-3-3-3-3---|.
D|----------------------------------------------------------------|.

F|----------------------------------------------------------------|
C|----------------------------------------------------------------|
G|2-2-2-2-2-2-2-2-2-2-2-2-2-2-2-2-2-2-2-2-2-2-2-2-2-2-2-2-2-2-2---|
D|----------------------------------------------------------------|

F|----------------------------------------------------------------|
C|----------------------------------------------------------------|
G|----------------------------------------------------------------|
D|3-3-3-3-3-3-3-3-3-3-3-3-3-3-3-3-3-3-3-3-3-3-3-3-3-3-3-3-3-3-3---|

F|----------------------------------------------------------------|.
C|----------------------------------------------------------------|.
G|2-2-2-2-2-2-2-2-2-2-2-2-2-2-2---7-7-7-7-7-7-7-7-7-7-7-7-7-7-\---|.
D|----------------------------------------------------------------|.
                                                                   . x3
F|----------------------------------------------------------------|.
C|----------------------------------------------------------------|.
G|3-3-3-3-3-3-3-3-3-3-3-3-3-3-3-----------------------------------|.
D|--------------------------------3-3-3-3-3-3-3-3-3-3-3-3-3-3-3---|.

2:41

F|----------------------------------------------------------------|
C|----------------------------------------------------------------|
G|3-3-3-3-3-3-3-3-3-3-3-3-3-3-3-3-3-3-3-3-3-3-3-3-3-3-3-3-3-3-3---|
D|----------------------------------------------------------------|

F|----------------------------------------------------------------|
C|----------------------------------------------------------------|
G|----------------------------------------------------------------|
D|4-4-4-4-4-4-4-4-4-4-4-4-4-4-4-4-4-4-4-4-4-4-4-4-4-4-4-4-4-4-4---|

F|----------------------------------------------------------------|.
C|----------------------------------------------------------------|.
G|3-3-3-3-3-3-3-3-3-3-3-3-3-3-3-3-3-3-3-3-3-3-3-3-3-3-3-3-3-3-3---|.
D|----------------------------------------------------------------|.
                                                                   . x3
F|----------------------------------------------------------------|.
C|----------------------------------------------------------------|.
G|6-6-6-6-6-6-6-6-6-6-6-6-6-6-6-6-6-6-6-6-6-6-6-6-6-6-6-6-6-6-6---|.
D|----------------------------------------------------------------|.

F|----------------------------------------------------------------|.
C|----------------------------------------------------------------|.
G|3-3-3-3-3-3-3-3-3-3-3-3-3-3-3-3-3-3-3-3-3-3-3-3-3-3-3-3-3-3-3---|.
D|----------------------------------------------------------------|.
                                                                   . x4
F|----------------------------------------------------------------|.
C|----------------------------------------------------------------|.
G|6-6-6-6-6-6-6-6-6-6-6-6-6-6-\---------------------------/---\---|.
D|--------------------------------4-4-4-4-4-4-4-4-4-4-4-----------|.

3:36

F|----------------------------------------------------------------|.
C|----------------------------------------------------------------|.
G|2-2-2-2-2-2-2-2-2-2-2-2-2-2-2-2-2-2-2-2-2-2-2-2-2-2-2-2-2-2-2---|.
D|----------------------------------------------------------------|.
                                                                   . x2
F|----------------------------------------------------------------|.
C|----------------------------------------------------------------|.
G|3-3-3-3-3-3-3-3-3-3-3-3-3-3-3-3-3-3-3-3-3-3-3-3-3-3-3-3-3-3-3---|.
D|----------------------------------------------------------------|.

F|----------------------------------------------------------------|.
C|----------------------------------------------------------------|.
G|7-7-7-7-7-7-7-7-7-7-7-7-7-7-7-7-7-7-7-7-7-7-7-7-7-7-7-7-7-7-7---|.
D|----------------------------------------------------------------|.
                                                                   . x2
F|----------------------------------------------------------------|.
C|----------------------------------------------------------------|.
G|3-3-3-3-3-3-3-3-3-3-3-3-3-3-3-3-3-3-3-3-3-3-3-3-3-3-3-3-3-3-3---|.
D|----------------------------------------------------------------|.

F|----------------------------------------------------------------|.
C|----------------------------------------------------------------|.
G|2-2-2-2-2-2-2-2-2-2-2-2-2-2-2-2-2-2-2-2-2-2-2-2-2-2-2-2-2-2-2---|.
D|----------------------------------------------------------------|.
                                                                   . x2
F|----------------------------------------------------------------|.
C|----------------------------------------------------------------|.
G|3-3-3-3-3-3-3-3-3-3-3-3-3-3-3-3-3-3-3-3-3-3-3-3-3-3-3-3-3-3-3---|.
D|----------------------------------------------------------------|.

4:14

F|----------------------------------------------------------------|.
C|----------------------------------------------------------------|.
G|2-2-2-2-2-2-2-2-2-2-2-2-2-2-2---7-7-7-7-7-7-7-7-7-7-7-7-7-7-7---|.
D|----------------------------------------------------------------|.
                                                                   . x2
F|----------------------------------------------------------------|.
C|----------------------------------------------------------------|.
G|--------------------------------3-3-3-3-3-3-3-3-3-3-3-3-3-3-3---|.
D|3-3-3-3-3-3-3-3-3-3-3-3-3-3-3-----------------------------------|.

F|----------------------------------------------------------------|
C|----------------------------------------------------------------|
G|2-2-2-2-2-2-2-2-2-2-2-2-2-2-2---7-7-7-7-7-7-7-7-7-7-7-7-7-7-7---|
D|----------------------------------------------------------------|

F|----------------------------------------------------------------|
C|5-5-5-5-5-5-5-5-5-5-5-5-5-5-5-5-5-5-5-5-5-5-5-5-5-5-5-5-5-5-\---|
G|----------------------------------------------------------------|
D|----------------------------------------------------------------|

F|----------------------------------------------------------------|
C|----------------------------------------------------------------|
G|2-2-2-2-2-2-2-2-2-2-2-2-2-2-2---7-7-7-7-7-7-7-7-7-7-7-7-7-7-7---|
D|----------------------------------------------------------------|

F|----------------------------------------------------------------|
C|----------------------------------------------------------------|
G|--------------------------------3-3-3-3-3-3-3-3-3-3-3-3-3-3-3---|
D|3-3-3-3-3-3-3-3-3-3-3-3-3-3-3-----------------------------------|

F|----------------------------------------------------------------|
C|----------------------------------------------------------------|
G|0---------------------------------------------------------------|
D|----------------------------------------------------------------|
Добавлено: 01.12.2015
Другие материалы по этой песне:
  • Аккорды и текст

Страница создана 01.12.2015
http://primanota.ru/darkthrone/transilvanian-hunger-album-chords.htm
Привет, Гость.
Предлагаем пройти революционный курс по гитаре.
Подарок от PrimaNota.Ru, забирай!