PrimaNota.ru - самый крупный в мире бесплатный архив песенных текстов, аккордов, табулатур и нот


Darkthrone - To The Death - аккорды и текст, видео

Регистрация Запомнить меня
Войти через:  Facebook Google Twitter Vk Yandex Mail.ru

Darkthrone - To The Death - аккорды и текст, видео

Печатать
Просмотров: 159
Новый альбом группы 'Черный Кузнец' по культовому сериалу 'Сверхъестественное'!
To The Death
Darkthrone
'To the Death (Under the King)' by Darkthrone
transcribed by Knut Farstad
Song from the album 'Ravishing Grimness'

Downloaded exclusively from:
The Black Death... Black & Death Metal Page
http://theblackdeath.cjb.net

Standard EADGBe tuning
Do not *always* be guided by the pattern of strumming in this tab like a bible.
Listen to the song. I have not listed any structure of the rhy. figures or riffs
in the end of the tab or elsewhere. For each named figure, I have written the
time of it's first occurance. 800x600 resolution. Be fine, and stay atheistic -
have fun with the song.
- Knut Farstad

|Rhy. Fig. 1 [0:00]
|-----------------------------------------------------------------------------
|-----------------------------------------------------------------------------
|-----------------------------------------9--12-------------------------------
|--9--9---9--9--9---9--9--9---9--9--9-----9--12----9--9---9--9-9--9-----------
|--7--7---7--7--7---7--7--7---7--7--7-----7--10----7--7---7--7-7--7-7-7-7-7-6-
|--0--0---0--0--0---0--0--0---0--0--0---0----------0--0---0--0-0--0-5-5-5-5-4-
                                                                              

------------------------------------------------------------------------------
------------------------------------------------------------------------------
------------------------------------------------------------------------------
------------------------9--9---9--9--9---9--9--9---9--9--9-----8--10--9--9----
--6-6-7-7-7-7-8-8-8-8---7--7---7--7--7---7--7--7---7--7--7-----6--8---7--7----
--4-4-5-5-5-5-6-6-6-6---0--0---0--0--0---0--0--0---0--0--0---0--------0--0----
                                                                              

-----------------------------------------|
-----------------------------------------|
-----------------------------------------|
--9--9-9--9------------------------------|
--7--7-7--7--7-7-7-7-7-7-7-7-7-7-7-7--3--|
--0--0-0--0--5-5-5-5-5-5-5-5-5-5-5-5--1--|
                                      End                                     

|Rhy. Fig. 2 [00:48] 1st end
|--------------------------------------------------------------|--------------
|-----------------------------------------------------------------------------
|--------------------------------------------------------------|--------------
|--------------------------------------------------------------|-12-11-12-11--
|--9-9--9-9--9-9--9--9--9-9--9-9--8-8--8-8--8-8-8--8--8-8--8-8---10-9--10-9---
|--7-7--7-7--7-7-10--7--7-7--7-7--6-6--6-6--6-6-9--6--6-6--6-6-|--------------
                                                           x1.5           
2nd end
---------------|---------------------------------------|
-------------------------------------------------------|
---------------|---------------------------------------|
--11-11-11-10--|--12-12-12-12-12-12--------------------|
--9--9--9--8------10-10-10-10-10-10-12-12-12-12-12-12--|
---------------|--------------------10-10-10-10-10-10--|
End of rhy. Fig. 2
                                                                              
|Rhy. Fig. 3 [03:25]
|-----------------------------------------------------------------------------
|-----------------------------------------------------------------------------
|-7-7-7-7-7-7-7-7-7-7-7-7-7-7-7-7-----------------------------------7-7-7-7-7-
|-5-5-5-5-5-5-5-5-5-5-5-5-5-5-5-5--8-8-8-8-8-8-8-8-8-8-8-8-8-8-8-8--5-5-5-5-5-
|-5-5-5-5-5-5-5-5-5-5-5-5-5-5-5-5--6-6-6-6-6-6-6-6-6-6-6-6-6-6-6-6--5-5-5-5-5-
|----------------------------------6-6-6-6-6-6-6-6-6-6-6-6-6-6-6-6------------
                                                               
1st end 2nd end
------------------------|--------------------------------------|--------------
------------------------------------------------------------------------------
--7-7-7-7-7-7-7-7-7-7-7-|-5-5-5-5-5-5-5-5-5-5-5-5-5-5-6-6-6-6--|-8-8-8-8-8-8--
--5-5-5-5-5-5-5-5-5-5-5-|-3-3-3-3-3-3-3-3-3-3-3-3-3-3-4-4-4-4--|-6-6-6-6-6-6--
--5-5-5-5-5-5-5-5-5-5-5---3-3-3-3-3-3-3-3-3-3-3-3-3-3-4-4-4-4----6-6-6-6-6-6--
------------------------|--------------------------------------|--------------
                                                                              

------------------------|
------------------------|
--8-8-9-9-9-9-10101010--|
--6-6-7-7-7-7-8-8-8-8---|
--6-6-7-7-7-7-8-8-8-8---|
------------------------|
Добавлено: 22.04.2012
Другие материалы по этой песне:
  • Аккорды и текст

Страница создана 22.04.2012
http://primanota.ru/darkthrone/to-the-death-chords.htm
Привет, Гость.
Предлагаем пройти революционный курс по гитаре.
Подарок от PrimaNota.Ru, забирай!