PrimaNota.ru - самый крупный в мире бесплатный архив песенных текстов, аккордов, табулатур и нот


Darkseed - Like To A Silver Bow - текст песни, таба, видео

Регистрация Запомнить меня
Войти через:  Facebook Google Twitter Vk Yandex Mail.ru

Darkseed - Like To A Silver Bow - текст песни, таба, видео

Печатать
Просмотров: 237
Уроки эстрадного вокала в Санкт-Петербурге
Title: Like To A Silver Bow
Artist: Darkseed
Album: Ultimate Darkness: Unheralded Past
Tab: October

The song first appeared on the Midnight Solemnly Dance album,
but this tab is based on the Re-Mixed version.

Me playing it:

Note: This song is played with a 7-stringed guitar.
Either get one, or tune your guitar down 5 half steps.
Note that if you do this, the solos will not be correct.

-----------------------------------------------------------

Intro: Riff 1		- 2 times
1. Verse: Riff 1	- 2 times
Chorus: Riff 2		- 2 times
2 and 3. Verse: Riff 1	- 4 times
Chorus: Riff 2		- 2 times
Bridge: Riff 3 		- 4 times
Bridge: Riff 4		- 2 times - Solo 1
Bridge: Riff 3		- 4 times
Riff 5: 		- 6 times - Solo 2
Riff 1:			- 4 times
Riff 2: 		- 2 times
Outro: Riff 6		- 2 times - Solo 3


------------------------------------------------------------


Riff 1: Play every chord two times. Palm Mute on the low B's.
e||------------------------------------|
B||------------------------------------|
G||------------------------------------|
D||----------4-4--------------5-5-4-4--|
A||--2-2-2-2-4-4-5-5--2-2-2-2-5-5-4-4--|
E||--2-2-2-2-2-2-5-5--2-2-2-2-3-3-2-2--|
B||--0-0-0-0-----3-3--0-0-0-0----------|


Riff 2: Play every chord four times, pretty fast.
e||------------------------------------|
B||------------------------------------|
G||------------------------------------|
D||-----4-4-2-2---7------4-4-5-5---4---|
A||-2-2-4-4-2-2-5-7--2-2-4-4-5-5-5-4---|
E||-2-2-2-2-0-0-5-5--2-2-2-2-3-3-5-2---|
B||-0-0---------3----0-0---------3-----|


Riff 3: Play long notes, and arpeggio on the two last.
e||------------------------|
B||------------------------|
G||------------------------|
D||---4-5-------4----------|
A||-2-4-5---5--4-----------|
E||-2-2-3--5--2------------|
B||-0-----3----------------|


Riff 4: Long single chords. Some variations with arpeggio.
e||------------------------|
B||------------------------|
G||------------------------|
D||---5-7-9--9-7-9--5-2----|
A||-2-5-7-9--9-7-9--5-2-2--|
E||-2-3-5-7--7-5-7--3-0-2--|
B||-0-------------------0--|


Riff 5: Play every note 8 times, fast.
Palm Mute the two first repetitions.
e||-------------------------|
B||-------------------------|
G||-------------------------|
D||-----4-4-----5-7---------|
A||-2-2-4-4-2-2-5-7---------|
E||-2-2-2-2-2-2-3-5---------|
B||-0-0-----0-0-------------|


Riff 6: Play long slow notes
e||-------------------------|
B||-------------------------|
G||-------------------------|
D||---7-2-----7-5-4---------|
A||-2-7-2-5-2-7-5-4---------|
E||-2-5-0-5-2-5-3-2---------|
B||-0-----3-0---------------|


------------------------------------------------------------


Solo 1: I have cut some notes here, to make it look better.
Just listen, and you will hear how it is.
e||-----------------------------|--------------------------|
B||-----------------------------|--------------------------|
G||-----------------------------|--------------------------|
D||-9--7-9--12-11--9--7-9--9-7--|9--7-9--9-7-5--5-5-7-5-4--|
A||-----------------------------|--------------------------|
E||-----------------------------|--------------------------|
B||-----------------------------|--------------------------|


Solo 2: Three times each note
e||-----------------------------------------|
B||-15-14-12-15-14-12---12-------12---------|
G||------------------------14-11----14-11---|
D||-----------------------------------------|
A||-----------------------------------------|
E||-----------------------------------------|
B||-----------------------------------------|

                        One hit each note, four times.
e||-----------------------------------------|
B||-15-14-12-15-14-12---15-14-12-x4---------|
G||-----------------------------------------|
D||-----------------------------------------|
A||-----------------------------------------|
E||-----------------------------------------|
B||-----------------------------------------|


Solo 3, Outro:
      (to 14)                   Not 100% here.    (to 14) (to 15)
e||-12b-(10)--------------------------------------12b-----14b-14-|
B||----------12---------------------------------------12---------|
G||--------------------------------------------------------------|
D||------------9-12-11-9-7-9-7-9----9-11-12-11-9-----------------|
A||------------------------------9-------------------------------|
E||--------------------------------------------------------------|
B||--------------------------------------------------------------| 

e||-14-12-------------------~~---~~-~~-~~-~~-~~--|
B||-------15-12----------15-12---15-14-12-11-12--|
G||-------------14-11-14-------------------------|
D||----------------------------------------------|
A||----------------------------------------------|
E||----------------------------------------------|
B||----------------------------------------------|


Hope you enjoyed it! :)

Добавлено: 07.05.2012
Другие материалы по этой песне:
  • Аккорды и текст

Страница создана 07.05.2012
http://primanota.ru/darkseed/like-to-a-silver-bow-chords.htm
Привет, Гость.
Предлагаем пройти революционный курс по гитаре.
Подарок от PrimaNota.Ru, забирай!