PrimaNota.ru - самый крупный в мире бесплатный архив песенных текстов, аккордов, табулатур и нот


Darkness - The Hoax - таба, видео

Регистрация Запомнить меня
Войти через:  Facebook Google Twitter Vk Yandex Mail.ru

Darkness - The Hoax - таба, видео

Печатать
Просмотров: 86
Artist: The Darkness

Album: Permission to land

Track: I believe in a thing called love

Tabbed by Flexos C Listen to the album to get the rythm right

Tuning: Standard (High to low- E B G D A E)

 

Verse/Intro:

e---------------------------------------------------------

b---------------------------------------------------------

g---------------------------------------------------------

d----4---7--7--9--9--9--9--2--2--9--9--7--7---------------

a----4---7--7--9--9--9--9--2--2--9--9--7--7-----0--2--4--0

e----2---5--5--7--7--7--7--0--0--7--7--5--5--4------------

 

e------------------------------------------------------------

b------------------------------------------------------------

g------------------------------------------------------------

d----4---7--7--9--9--9--9--2--2--9--9--7--7------------------

a----4---7--7--9--9--9--9--2--2--9--9--5--5------------------

e----2---5--5--7--7--7--7--0--0--7--7--5--5--4--5--4--2--0--0

 

Bridge:

 

e---------------------------------------------------------------------

b---------------------------------------------------------------------

g---------------------------------------------------------------------

d---------------------------------------------------------------------

a---------------------------------------------------------------------

e----2-2-2-2-2-2-2-2-2-2-2-2-0-2-2-2-2-2-2-2-2-2-2-2-2-0-2-2-2-5--6--7

 

e---------------------------

b---------------------------

g---------------------------

d---------------------------

a---------------------------

e----7-7-7-7-7-7-7-7-7-7-7-7

 

Chorus:

 

e--------------------------------------

b--------------------------------------

g--------------------------------------

d--------------------------------------

a-------------0--------------0--2--4--2

e----0--2--4-----4--0--2--4------------


________________________________________________________________________________
Get a free connection, half-price modem and one month FREE, when you sign
up for BT Broadband today!
     
Добавлено: 10.06.2013
Другие материалы по этой песне:
  • Аккорды и текст

Страница создана 10.06.2013
http://primanota.ru/darkness/the-hoax-chords.htm
Привет, Гость.
Предлагаем пройти революционный курс по гитаре.
Подарок от PrimaNota.Ru, забирай!