PrimaNota.ru - самый крупный в мире бесплатный архив песенных текстов, аккордов, табулатур и нот


Darkness - Sarah Osarah - таба, видео

Регистрация Запомнить меня
Войти через:  Facebook Google Twitter Vk Yandex Mail.ru

Darkness - Sarah Osarah - таба, видео

Печатать
Просмотров: 67
---------------------------------------------------------------------------------------
                             Sarah O' Sarah - The Darkness
---------------------------------------------------------------------------------------
Artist: The Darkness
Song: Sarah O'Sarah
Album: Last of our Kind (2015)
Tabbed by: Garci

Tuning: Standard

************************************

| b  - bend
| h  - hammer-on
| p  - pull-off
| r  - release
| () - used after bend or release, shows the target note
| /  - slide
| ~  - vibrato
| tr - trill

************************************

=====
Intro
=====

e|--------------------9--11--12--|--16--14--12------12--------------|
B|---------9--10--12-------------|--------------16------16--14--12--|
G|--9--11------------------------|----------------------------------|
D|-------------------------------|----------------------------------|
A|-------------------------------|----------------------------------|
E|-------------------------------|----------------------------------|

======
Solo 1
======

e|-----------------------------------|--------------------------|-----------------------------------|
B|--16b(17)----16--12----------------|--------------------------|-----------------------------------|
G|---------------------11b(13)r(11)--|--6----/13---13--11---9~--|--/6--4~--6------------------------|
D|-----------------------------------|--7----/14---14-----------|-------------/6--4~--2--4b(6)r(4)--|
A|-----------------------------------|--------------------------|-----------------------------------|
E|-----------------------------------|--------------------------|-----------------------------------|


e|--------------------9--11--12--|--16--14--12------12-----------------------|
B|---------9--10--12-------------|--------------16------16--14--12--16b(17)--|
G|--9--11------------------------|-------------------------------------------|
D|-------------------------------|-------------------------------------------|
A|-------------------------------|-------------------------------------------|
E|-------------------------------|-------------------------------------------|

=======
Verse 1
=======

E
I love you but you 

A     B          A     B
Don't believe in that

        E
Some of the greatest minds of all time

        A          B         A         B
Were convinced the Earth was flat

        E
I'll be patient, I'll be strong

A         B          A       B
Until you see you're wrong

          E
Because I swallowed, swallowed every lie

         A     B      A       B
You ever spat

======
Chorus
======

E       B      A    G# F#    E
Sarah O'Sarah, make my heart burn

    C#m              A
I'm lost within this labyrinth

E F#    G# F#
Nowhere to turn

  E      B      A    G# F#    E
O'Sarah, Sarah, make my heart sing

    C#m           A
I'm frozen in the wilderness

B      G#  F# E
Please let me in

======
Solo 1
======

e|-----------------------------------|--------------------------|-----------------------------------|
B|--16b(17)----16--12----------------|--------------------------|-----------------------------------|
G|---------------------11b(13)r(11)--|--6----/13---13--11---9~--|--/6--4~--6------------------------|
D|-----------------------------------|--7----/14---14-----------|-------------/6--4~--2--4b(6)r(4)--|
A|-----------------------------------|--------------------------|-----------------------------------|
E|-----------------------------------|--------------------------|-----------------------------------|


e|--------------------9--11--12--|--16--14--12------12-----------------------|
B|---------9--10--12-------------|--------------16------16--14--12--16b(17)--|
G|--9--11------------------------|-------------------------------------------|
D|-------------------------------|-------------------------------------------|
A|-------------------------------|-------------------------------------------|
E|-------------------------------|-------------------------------------------|

=======
Verse 2
=======

E
I treasure 

    A       B     A     B
the moments you endure

         E
Although I recognise, the good times

    A          B        A      B
Are further between and fewer

          E
I'll hold on, white knuckles

A        B         A        B 
Until my back bone buckles

        E
And you leave me, leave me for

                A        B      A      B
Somebody who is newer

======
Chorus
======

E       B      A    G# F#    E
Sarah O'Sarah, make my heart burn

    C#m              A
I'm lost within this labyrinth

E F#    G# F#
Nowhere to turn

  E      B      A    G# F#    E
O'Sarah, Sarah, make my heart sing

    C#m           A
I'm frozen in the wilderness

B      G#  F# E
Please let me in

=========
Breakdown
=========

Strum repeatedly

e|--0--|--12--|
B|--0--|--12--|
G|--1--|--13--|
D|--2--|--14--|
A|--2--|--xx--|
E|--0--|--xx--|


e|-12tr--11tr--9tr--7tr--|
B|-----------------------|
G|-----------------------|
D|-----------------------|
A|-----------------------|
E|-----------------------|


Voices singing:

E      A  B  A  B
Sarah 

===================
Solo (slide guitar)
===================

e|-------------------|------------------------|
B|--5/17~--16/12--9--|--------9/12\9----------|
G|-------------------|--9/11----------9/11\0--|
D|-------------------|------------------------|
A|-------------------|------------------------|
E|-------------------|------------------------|


e|--/17-/17-/17----\16--16~----/17--16--|--17--17/16--14/12--12--/19--14/bridge--|
B|--------------------------------------|----------------------------------------|   when the solo ends, keep on
G|--------------------------------------|----------------------------------------|   running the slide up the 
D|--------------------------------------|----------------------------------------|   string onto the bridge 
A|--------------------------------------|----------------------------------------|   using wide vibrato
E|--------------------------------------|----------------------------------------|


When ending the solo, background guitar plays:

e|-----------------------|
B|-----------------------|
G|-----------------------|
D|-----------------------|
A|--7--7/6--6/4--4/2--2--|
E|-----------------------|

======
Chorus
======

E       B      A    G# F#    E
Sarah O'Sarah, make my heart burn

    C#m              A
I'm lost within this labyrinth

E F#    G# F#
Nowhere to turn

  E      B      A    G# F#    E
O'Sarah, Sarah, make my heart sing

    C#m           A
I'm frozen in the wilderness

B      G#  F# E
Please let me in

======
Ending
======

   C#m   A       B                E
e|--4----5----------------------------7--|
B|--5----5-------4----5----4-5-------9---|
G|--6----6-------4----4----4-4------9----|
D|--6----7-------4----4----4-4-----9-----|
A|--4----7-------2----2----2-2----7------|
E|-------5-------------------------------|
                 When will I      learn?

Добавлено: 27.10.2015
Другие материалы по этой песне:
  • Аккорды и текст

Страница создана 27.10.2015
http://primanota.ru/darkness/sarah-osarah-chords.htm
Привет, Гость.
Предлагаем пройти революционный курс по гитаре.
Подарок от PrimaNota.Ru, забирай!