PrimaNota.ru - самый крупный в мире бесплатный архив песенных текстов, аккордов, табулатур и нот


Darkness - Open Fire - таба, видео

Регистрация Запомнить меня
Войти через:  Facebook Google Twitter Vk Yandex Mail.ru

Darkness - Open Fire - таба, видео

Печатать
Просмотров: 53
The Darkness
"Open Fire"
From the album "Last of Our Kind" (2015)

Standard Tuning

Intro (12-string Guitar)
|---------||----------------------|----------------------|----------------------|--------------------------||
|---------||o------13--13-12------|------10--10--12------|------13--13-12----15-|-(15)--15-13--12-13------o||
|---------||-----------------12---|-----------------12---|----------------12----|--------------------12----||
|-------0-||--(0)---------------0-|-(0)----------------0-|-(0)------------------|-----------------------0--||
|---------||o---------------------|----------------------|----------------------|-------------------------o||
|---------||----------------------|----------------------|----------------------|--------------------------||

Verse                
||---------------------|------------------|---------------------|-------------------------||
||o--------------------|------------------|---------------------|------------------------o||
||---------------------|------------------|---------------------|-------------------------||
||--(0)--10-0-10-9-0-0-|-(0)--7-0-7-9-0-0-|-(0)--10-0-10-9-0-12-|-(12)-12-10-0-9-10-0-0---||
||o--------------------|------------------|---------------------|------------------------o||
||---------------------|------------------|---------------------|-------------------------||


|----------------|----------------|----------------|----------------|
|----------------|----------------|----------------|----------------|
|-5--5-----5-----|-5--5-----5-----|-5--5-----5-----|-5--5-----5-----|
|-5--5-----5-----|-5--5-----5-----|-5--5-----5-----|-5--5-----5---3-|
|-3--3-3-3-3-3-3-|-3--3-3-3-3-3-3-|-3--3-3-3-3-3-3-|-3--3-3-3-3-3-3-|
|----------------|----------------|----------------|--------------1-|


|------------------|----------------|----------------|----------------|
|------------------|----------------|----------------|----------------|
|------------------|----------------|----------------|----------------|
|-(3)S=5-----5-----|-5--5-----5-----|-5--5-----5-----|-5--5-----5-----|
|-(3)S=5-----5-----|-5--5-----5-----|-5--5-----5-----|-5--5-----5-----|
|-(1)S=3-3-3-3-3-3-|-3--3-3-3-3-3-3-|-3--3-3-3-3-3-3-|-3--3-3-3-3-3-3-|

Lead Guitar (bend note, hold it and tap)
|-------------------------|--------------------------|--------------------|------------------|
|-13b15--T16--(15)r13-10--|--------------------------|--------------------|------------------|
|-------------------------|--12b14--T15--(14)r12-10--|--------------------|------------------|
|-------------------------|--------------------------|--12-----<10*>------|------------------|
|-------------------------|--------------------------|--------------------|-10b12r10-8-------|
|-------------------------|--------------------------|--------------------|-------------10---|
                                                      *pinch harmonic

Chorus
  D                C                G                F
|----------------|----------------|----------------|----------------|
|----------------|----------------|----------------|----------------|
|-7--7-----7-----|-5--5-----5-----|----------------|----------------|
|-7--7-----7-----|-5--5-----5-----|-5--5-----5-----|-3--3-----3-----|
|-5--5-5-5-5-5-5-|-3--3-3-3-3-3-3-|-5--5-----5-----|-3--3-----3-----|
|----------------|----------------|-3--3-3-3-3-3-3-|-1--1-1-1-1-1-1-|

During second Chorus, 12 string plays:
  D                Cadd9            G                F
|-2--------------|-3--------------|-3--------------|-1--------------|
|-3--------------|-3--------------|-3--------------|-1--------------|
|-2--------------|-0--------------|-0--------------|-2--------------|
|-0--------------|-2--------------|-0--------------|-3--------------|
|----------------|-3--------------|-2--------------|-3--------------|
|----------------|----------------|-3--------------|-1--------------|

Break/Outro           
|---------------|-----------------|---------------|-----------------|
|-------------7-|-(7)-------------|-------------8-|-(8)-------------|
|---7----5------|-------7--7-5-7--|---7----5------|-------7--7-5-7--|
|-0----0----0---|-----0-----------|-0----0----0---|-----0-----------|
|---------------|-----------------|---------------|-----------------|
|---------------|-----------------|---------------|-----------------|
Добавлено: 27.10.2015
Другие материалы по этой песне:

Страница создана 27.10.2015
http://primanota.ru/darkness/open-fire-chords.htm
Привет, Гость.
Предлагаем пройти революционный курс по гитаре.
Подарок от PrimaNota.Ru, забирай!