PrimaNota.ru - самый крупный в мире бесплатный архив песенных текстов, аккордов, табулатур и нот


Darkness - Mudslide - таба, видео

Регистрация Запомнить меня
Войти через:  Facebook Google Twitter Vk Yandex Mail.ru

Darkness - Mudslide - таба, видео

Печатать
Просмотров: 57
-------------------------------------------------------------------------------
                         Mudslide - The Darkness
-------------------------------------------------------------------------------
Tabbed by: Rory H
E-mail: rdeh10@googlmail.com

Tuning: EADGBe

This one was tabbed upon request, I am not overly familiar with the song, but I have used live videos
to confirm accuracy throughout, so hopefully its all good :) If you have any corrections or improvements
please let me know in the comments of by email :) Enjoy!

INTRO:
e|--------|---------------|--------|---------------|--------|
B|--------|---------------|--------|---------------|--------|
G|--------|-2-----2-----2-|--------|-2-----2-----2-|--------|
D|--------|-2-----2-----2-|--------|-2-----2-----2-|--------|
A|--------|-0-3h4---3h4---|--------|-0-3h4---3h4---|--------|
E|--------|---------------|--------|---------------|--------|

VERSE 1:
e|-----------------------|-----------------------|------------------|-----------------------|
B|-----------------------|-----------------------|------------------|-----------------------|
G|------2-----2-----2----|-----5-----------------|-2-----2-----2----|-----7-----------------|
D|-14\--2-----2-----2----|---------------5-5-x-7-|-2-----2-----2----|---------------5-5-x-7-|
A|-14\--0-3h4---3h4------|-5h7---7\5-3-0-3-3-x-5-|-0-3h4---3h4------|-5h7---7\5-3-0-3-3-x-5-|
E|-12\-------------------|-----------------------|------------------|-----------------------|

e|------------------|-----------------------|------------------|-----------------------|
B|------------------|-----------------------|------------------|-----------------------|
G|-2-----2-----2----|-----5-----------------|-2-----2-----2----|-----7-----------------|
D|-2-----2-----2----|---------------5-5-x-7-|-2-----2-----2----|---------------5-5-x-7-|
A|-0-3h4---3h4------|-5h7---7\5-3-0-3-3-x-5-|-0-3h4---3h4------|-5h7---7\5-3-0-3-3-x-5-|
E|------------------|-----------------------|------------------|-----------------------|

e|------------------|-----------------------|------------------|-----------------------|
B|------------------|-----------------------|------------------|-----------------------|
G|-2-----2-----2----|-----5-----------------|-2-----2-----2----|-----7-----------------|
D|-2-----2-----2----|---------------5-5-x-7-|-2-----2-----2----|---------------5-5-x-7-|
A|-0-3h4---3h4------|-5h7---7\5-3-0-3-3-x-5-|-0-3h4---3h4------|-5h7---7\5-3-0-3-3-x-5-|
E|------------------|-----------------------|------------------|-----------------------|

e|-------------------|-------------------|------------------|-----------------------|
B|-------------------|-------------------|------------------|-----------------------|
G|-------------------|-------------------|------------------|-----------------------|
D|-2-----2-----2--2--|-2-----2-----2--2--|-2-----2-----2--2-|-----------------------|
A|-2-----2-----2--2--|-2-----2-----2--2--|-2-----2-----2--2-|-----5---------5-3-x-7-|
E|-0-3h4---3h4----0--|-0-3h4---3h4----0--|-0-3h4---3h4----0-|-5h7---7\5-3p0-3-3-x-5-|

e|-------------------|-------------------|------------------|-----------------------|
B|-------------------|-------------------|------------------|-----------------------|
G|-------------------|-------------------|------------------|-----------------------|
D|-2-----2-----2--2--|-2-----2-----2--2--|-2-----2-----2--2-|-----------------------|
A|-2-----2-----2--2--|-2-----2-----2--2--|-2-----2-----2--2-|-----5---------5-3-x-7-|
E|-0-3h4---3h4----0--|-0-3h4---3h4----0--|-0-3h4---3h4----0-|-5h7---7\5-3p0-3-3-x-5-|

CHORUS:
e|------------------------------------------------|
B|------------------------------------------------|
G|------------------------------------------------| x4 This part is something along these lines :) 
D|-------------12~---------------------12~-11-----| 
A|-11--12--14------14--12--11--12--14----------14-|
E|--0--(0)-(0)--------------0--(0)-(0)------------|

VERSE 2:
e|----------------(---------------------------)-|
B|----------------(/14-14-14------------------)-|
G|-2-----2-----2--(/14-14-14-x-2-2-22---------)-| x2 Where the bracketed section is on an acoustic but
D|-2-----2-----2--(/14-14-14-x-2-2-22-5-5-x-7-)-|    in live versions can be seen to be played on electric
A|-0-3h4---3h4----(----------x-0-0-00-3-3-x-5-)-|
E|----------------(---------------------------)-|

e|-----------------------|-----------------------|------------------|-----------------------|
B|-----------------------|-----------------------|------------------|-----------------------|
G|------2-----2-----2----|-----5-----------------|-2-----2-----2----|-----7-----------------|
D|-14\--2-----2-----2----|---------------5-5-x-7-|-2-----2-----2----|---------------5-5-x-7-|
A|-14\--0-3h4---3h4------|-5h7---7\5-3-0-3-3-x-5-|-0-3h4---3h4------|-5h7---7\5-3-0-3-3-x-5-|
E|-12\-------------------|-----------------------|------------------|-----------------------|

e|-----------------------|-----------------------|------------------|-----------------------|
B|-----------------------|-----------------------|------------------|-----------------------|
G|------2-----2-----2----|-----5-----------------|-2-----2-----2----|-----7-----------------|
D|-14\--2-----2-----2----|---------------5-5-x-7-|-2-----2-----2----|---------------5-5-x-7-|
A|-14\--0-3h4---3h4------|-5h7---7\5-3-0-3-3-x-5-|-0-3h4---3h4------|-5h7---7\5-3-0-3-3-x-5-|
E|-12\-------------------|-----------------------|------------------|-----------------------|

e|-------------------|-------------------|------------------|-----------------------|
B|-------------------|-------------------|------------------|-----------------------|
G|-------------------|-------------------|------------------|-----------------------|
D|-2-----2-----2--2--|-2-----2-----2--2--|-2-----2-----2--2-|-----------------------|
A|-2-----2-----2--2--|-2-----2-----2--2--|-2-----2-----2--2-|-----5---------5-3-x-7-|
E|-0-3h4---3h4----0--|-0-3h4---3h4----0--|-0-3h4---3h4----0-|-5h7---7\5-3p0-3-3-x-5-|

e|-------------------|-------------------|------------------|-----------------------|
B|-------------------|-------------------|------------------|-----------------------|
G|-------------------|-------------------|------------------|-----------------------|
D|-2-----2-----2--2--|-2-----2-----2--2--|-2-----2-----2--2-|-----------------------|
A|-2-----2-----2--2--|-2-----2-----2--2--|-2-----2-----2--2-|-----5---------5-3-x-7-|
E|-0-3h4---3h4----0--|-0-3h4---3h4----0--|-0-3h4---3h4----0-|-5h7---7\5-3p0-3-3-x-5-|

CHORUS:
e|------------------------------------------------|
B|------------------------------------------------|
G|------------------------------------------------| x4 
D|-------------12~---------------------12~-11-----| 
A|-11--12--14------14--12--11--12--14----------14-|
E|--0--(0)-(0)--------------0--(0)-(0)------------|

SOLO (A second guitar plays an A power chord through this part, listen for timing):
e|---------------------------------------------------------------------------------------------------------|
B|-------------------------------------14h15p14h15---------------------------------------------------------|
G|----------12~---12-14-15-14-12-14-15-------------14h15p14h15---------------------------------------------|
D|-11-12-14----14----------------------------------------------14h15p14h15-11h12p11h12-11-12-11h12p11-9-11-|
A|---------------------------------------------------------------------------------------------------------|
E|---------------------------------------------------------------------------------------------------------|

e|------------------------------------------------------------------------|
B|------------------------------------------------------------------------|
G|------------------------------14b15-14-12-------------------------------|
D|-11h12/14--12-14-15-14-12-14--------------13.-12.-----------------------|
A|--------------------------------------------------13.-12.---------------|
E|----------------------------------------------------------13.-12.-6.-5.-|

SOLO PT 2:
e|-------------------------------------|
B|-------------------------------------|
G|-----14--12--------11--12-----12-----| x2
D|-11----------13-14--------11------13-| 
A|-------------------------------------|
E|-------------------------------------|
 
(Second guitar plays this through solo pt 2):
e|------------------|---------|
B|------------------|---------|
G|-2-----2-----2----|---------| x4
D|-2-----2-----2----|----5--7-|
A|-0-3h4---3h4------|----3--5-|
E|------------------|---------|

CHORUS:
e|------------------------------------------------|
B|------------------------------------------------|
G|------------------------------------------------| x4 
D|-------------12~---------------------12~-11-----| 
A|-11--12--14------14--12--11--12--14----------14-|
E|--0--(0)-(0)--------------0--(0)-(0)------------|

END:
e|-------|
B|-------|
G|-------|
D|-14-12-|
A|-12-10-|
E|-------|

And then at this point you may as well just destroy your guitar and kick a hole in your amp. 

************************************

| /   slide up
| \   slide down
| h   hammer-on
| p   pull-off
| ~   vibrato
| +   harmonic
| x   Mute note
| b   Bend
| pb  Pre-bend
| br  Bend release
| pbr Pre-bend release
| brb Bend release bend

************************************
Добавлено: 25.06.2016
Другие материалы по этой песне:
  • Аккорды и текст

Страница создана 25.06.2016
http://primanota.ru/darkness/mudslide-chords.htm
Привет, Гость.
Предлагаем пройти революционный курс по гитаре.
Подарок от PrimaNota.Ru, забирай!