PrimaNota.ru - самый крупный в мире бесплатный архив песенных текстов, аккордов, табулатур и нот


Darkness - Million Dollar Strong - таба, видео

Регистрация Запомнить меня
Войти через:  Facebook Google Twitter Vk Yandex Mail.ru

Darkness - Million Dollar Strong - таба, видео

Печатать
Просмотров: 61
-------------------------------------------------------------------------------
                             Million Dollar Strong - The Darkness
-------------------------------------------------------------------------------
Tabbed by: Brandin Hand
E-mail: Brandinfoot@gmail.com

Tuning: Standard


This is a bonus track from The Darkness' most recent album 'Last of our Kind' and it's just wonderful.



INTRO:
e|---------------------------------------------------------------------------|
B|--3~--3--x--x--3--x--3--x---------------------------1----------------------|
G|--2~--2--x--x--3--x--3--x--5~----3~----2~-----2--------2--------3---10\----|
D|--0~--0--x--x--0--x--0--x--5~----3~----2~--2-----2--------3--2--3---10\----|
A|---------------------------3~----1~----0~-----------------------1---8\-----|
E|---------------------------------------------------------------------------|


VERSE:
I heard a rumour that your heart's not in it, fell apart
e|---------------------------------------------------------------------------|
B|--3~--3--x--x--3--x--3--x---------------------------1----------------------|
G|--2~--2--x--x--3--x--3--x--5~----3~----2~-----2--------2--------3---10\----|
D|--0~--0--x--x--0--x--0--x--5~----3~----2~--2-----2--------3--2--3---10\----|
A|---------------------------3~----1~----0~-----------------------1---8\-----|
E|---------------------------------------------------------------------------|

Disappointed that I hadn't seen it, from the start
e|---------------------------------------------------------------------------|
B|--3~--3--x--x--3--x--3--x---------------------------1----------------------|
G|--2~--2--x--x--3--x--3--x--5~----3~----2~-----2--------2--------3---10\----|
D|--0~--0--x--x--0--x--0--x--5~----3~----2~--2-----2--------3--2--3---10\----|
A|---------------------------3~----1~----0~-----------------------1---8\-----|
E|---------------------------------------------------------------------------|

and Love, losing out on you is still my biggest fear, baby please
e|---------------------------------------------------------------------------|
B|---------------------------------------------------------------------------|
G|--5~--3----2--------3~--3----2---------------------2----2----3--3----5~----|
D|--5~----------3--0--3~----------3--0--3~--3--x--x--2----2----3--3----5~----|
A|--3~----------------1~----------------3~--3--x--x--0----0----1--1----3~----|
E|--------------------------------------1~--1--x--x--------------------------|

Don't go, you've got to let me know if any cracks appear, just let me know
e|---------------------------------------------------------------------------|
B|---------------------------------------------------------------------------|
G|--5~--3----2--------3~--3----2---------------------2----2----3--3----5~----|
D|--5~----------3--0--3~----------3--0--3~--3--x--x--2----2----3--3----5~----|
A|--3~----------------1~----------------3~--3--x--x--0----0----1--1----3~----|
E|--------------------------------------1~--1--x--x--------------------------|


CHORUS:
I called ahead and I tried to reserve it, come on pretty baby don't you think I deserve it?
e|---------------------------------------------------------------------------|
B|---------------------------------------------------------------------------|
G|---------------------------------------------------------------------------|
D|--3~--3-3-3----3-3-3---------------------3~--3-3-3----3-3-3----------------|
A|--3~--3-3-3----3-3-3--5--5--5--3~--------3~--3-3-3----3-3-3--5--5--5--3~---|
E|--1~--1-1-1-4b-1-1-1---------------5--3--1~--1-1-1-4b-1-1-1--------------5-|

I want love, we're gonna make it Million Dollar Strong
e|---------------------------------------------------------------------------|
B|---------------------------------------------------------------------------|
G|------------------------------------------5~----3~-------------------------|
D|--8~---------------5~---------------3~----5~----3~-------------------------|
A|--8~---------------5~---------------3~----3~----1~-------------------------|
E|--6~--6-6-6-6-6-6--3~--3-3-3-3-3-3--1~-------------------------------------|


POST CHORUS:
e|---------------------------------------------------------------------------|
B|--3~--3--x--x--3--x--3--x--------------3~--3--x--x--3--x--3--x-------------|
G|--2~--2--x--x--3--x--3--x--5~----3~----2~--2--x--x--3--x--3--x--3---10\----|
D|--0~--0--x--x--0--x--0--x--5~----3~----0~--0--x--x--0--x--0--x--3---10\----|
A|---------------------------3~----1~-----------------------------1---8\-----|
E|---------------------------------------------------------------------------|

e|---------------------------------------------------------------------------|
B|--8b10~------10~--8b10r8^6-5~--6-----------------------------8--10~/13\10~-|
G|----------------------------------5/7\5--5\3--5~--7~--9~--10---------------|
D|---------------------------------------------------------------------------|
A|---------------------------------------------------------------------------|
E|---------------------------------------------------------------------------|


VERSE:
I'm torn asunder I'm a broken person, I'm so upset
e|---------------------------------------------------------------------------|
B|--3~--3--x--x--3--x--3--x---------------------------1----------------------|
G|--2~--2--x--x--3--x--3--x--5~----3~----2~-----2--------2--------3---10\----|
D|--0~--0--x--x--0--x--0--x--5~----3~----2~--2-----2--------3--2--3---10\----|
A|---------------------------3~----1~----0~-----------------------1---8\-----|
E|---------------------------------------------------------------------------|

I'm not myself I'm a cruel inversion, but I'm not dead yet
e|---------------------------------------------------------------------------|
B|--3~--3--x--x--3--x--3--x---------------------------1----------------------|
G|--2~--2--x--x--3--x--3--x--5~----3~----2~-----2--------2--------3---10\----|
D|--0~--0--x--x--0--x--0--x--5~----3~----2~--2-----2--------3--2--3---10\----|
A|---------------------------3~----1~----0~-----------------------1---8\-----|
E|---------------------------------------------------------------------------|

and Love, the feelings that I have will turn me upside down, baby please
e|---------------------------------------------------------------------------|
B|---------------------------------------------------------------------------|
G|--5~--3----2--------3~--3----2---------------------2----2----3--3----5~----|
D|--5~----------3--0--3~----------3--0--3~--3--x--x--2----2----3--3----5~----|
A|--3~----------------1~----------------3~--3--x--x--0----0----1--1----3~----|
E|--------------------------------------1~--1--x--x--------------------------|

Don't go, I don't know what I'll do if you if you are not around, I just don't know
e|---------------------------------------------------------------------------|
B|---------------------------------------------------------------------------|
G|--5~--3----2--------3~--3----2---------------------2----2----3--3----5~----|
D|--5~----------3--0--3~----------3--0--3~--3--x--x--2----2----3--3----5~----|
A|--3~----------------1~----------------3~--3--x--x--0----0----1--1----3~----|
E|--------------------------------------1~--1--x--x--------------------------|


CHORUS:
I called ahead and I tried to reserve it, come on pretty baby don't you think I deserve it?
e|---------------------------------------------------------------------------|
B|---------------------------------------------------------------------------|
G|---------------------------------------------------------------------------|
D|--3~--3-3-3----3-3-3---------------------3~--3-3-3----3-3-3----------------|
A|--3~--3-3-3----3-3-3--5--5--5--3~--------3~--3-3-3----3-3-3--5--5--5--3~---|
E|--1~--1-1-1-4b-1-1-1---------------5--3--1~--1-1-1-4b-1-1-1--------------5-|

I want love, we're gonna make it Million Dollar Strong
e|---------------------------------------------------------------------------|
B|---------------------------------------------------------------------------|
G|------------------------------------------5~----3~-------------------------|
D|--8~---------------5~---------------3~----5~----3~-------------------------|
A|--8~---------------5~---------------3~----3~----1~-------------------------|
E|--6~--6-6-6-6-6-6--3~--3-3-3-3-3-3--1~-------------------------------------|

I never want to have to look for another, baby if you left me I would never recover
e|---------------------------------------------------------------------------|
B|---------------------------------------------------------------------------|
G|---------------------------------------------------------------------------|
D|--3~--3-3-3----3-3-3---------------------3~--3-3-3----3-3-3----------------|
A|--3~--3-3-3----3-3-3--5--5--5--3~--------3~--3-3-3----3-3-3--5--5--5--3~---|
E|--1~--1-1-1-4b-1-1-1---------------5--3--1~--1-1-1-4b-1-1-1--------------5-|

I want love, we're gonna make it Million Dollar Strong
e|---------------------------------------------------------------------------|
B|---------------------------------------------------------------------------|
G|------------------------------------------5~----3~-------------------------|
D|--8~---------------5~---------------3~----5~----3~-------------------------|
A|--8~---------------5~---------------3~----3~----1~-------------------------|
E|--6~--6-6-6-6-6-6--3~--3-3-3-3-3-3--1~-------------------------------------|


SOLO: In Progress!
e|---------------------------------------------------------------------------|
B|---------------------------------------------------------------------------|
G|---------------------------------------------------------------------------|
D|---------------------------------------------------------------------------|
A|---------------------------------------------------------------------------|
E|---------------------------------------------------------------------------|

e|---------------------------------------------------------------------------|
B|---------------------------------------------------------------------------|
G|---------------------------------------------------------------------------|
D|---------------------------------------------------------------------------|
A|---------------------------------------------------------------------------|
E|---------------------------------------------------------------------------|


CHORUS:
I called ahead and I tried to reserve it, come on pretty baby don't you think I deserve it?
e|---------------------------------------------------------------------------|
B|---------------------------------------------------------------------------|
G|---------------------------------------------------------------------------|
D|--3~--3-3-3----3-3-3---------------------3~--3-3-3----3-3-3----------------|
A|--3~--3-3-3----3-3-3--5--5--5--3~--------3~--3-3-3----3-3-3--5--5--5--3~---|
E|--1~--1-1-1-4b-1-1-1---------------5--3--1~--1-1-1-4b-1-1-1--------------5-|

I want love, we're gonna make it Million Dollar Strong
e|---------------------------------------------------------------------------|
B|---------------------------------------------------------------------------|
G|------------------------------------------5~----3~-------------------------|
D|--8~---------------5~---------------3~----5~----3~-------------------------|
A|--8~---------------5~---------------3~----3~----1~-------------------------|
E|--6~--6-6-6-6-6-6--3~--3-3-3-3-3-3--1~-------------------------------------|

I never want to have to look for another, baby if you left me I would never recover
e|---------------------------------------------------------------------------|
B|---------------------------------------------------------------------------|
G|---------------------------------------------------------------------------|
D|--3~--3-3-3----3-3-3---------------------3~--3-3-3----3-3-3----------------|
A|--3~--3-3-3----3-3-3--5--5--5--3~--------3~--3-3-3----3-3-3--5--5--5--3~---|
E|--1~--1-1-1-4b-1-1-1---------------5--3--1~--1-1-1-4b-1-1-1--------------5-|

I want love, we're gonna make it Million Dollar Strong
e|---------------------------------------------------------------------------|
B|---------------------------------------------------------------------------|
G|------------------------------------------5~----4~-------------------10\------|
D|--8~---------------5~---------------3~----5~----4~-------------------10\------|
A|--8~---------------5~---------------3~----3~----2~-------------------8\------|
E|--6~--6-6-6-6-6-6--3~--3-3-3-3-3-3--1~-------------------------------------|


************************************

| /   slide up
| \   slide down
| h   hammer-on
| p   pull-off
| ~   vibrato
| +   harmonic
| x   Mute note
| b   Bend
| pb  Pre-bend
| br  Bend release
| pbr Pre-bend release
| brb Bend release bend

************************************
Добавлено: 25.06.2016
Вам также может быть интересно:
Другие материалы по этой песне:
  • Аккорды и текст

Страница создана 25.06.2016
http://primanota.ru/darkness/million-dollar-strong-chords.htm
Привет, Гость.
Предлагаем пройти революционный курс по гитаре.
Подарок от PrimaNota.Ru, забирай!