PrimaNota.ru - самый крупный в мире бесплатный архив песенных текстов, аккордов, табулатур и нот


Darkness - Love Is Not The Answer - текст песни, таба, видео

Регистрация Запомнить меня
Войти через:  Facebook Google Twitter Vk Yandex Mail.ru

Darkness - Love Is Not The Answer - текст песни, таба, видео

Печатать
Просмотров: 170
-----------------------------------------------------------------------------
                    Love Is Not The Answer - The Darkness (Hot Cakes 2012)
-----------------------------------------------------------------------------
Standard Tuning (EADGBe)
Tabbed by Steve
Electric Version

  Love                                   Love is not 
E||------------------------|------------------------|
B||--3---------------3-----|--3---------------3-----|
G||--2----2-------------0--|--2----2-------------0--|
D||--0-------0--2----------|--0-------0--2----------|
A||-------------3----------|-------------3----------|
E||------------------------|------------------------|

the answer
--3----3--3--3--3--3-3-3-|3----3--3--3--3--3-3--3-|
--3----3--3--3--3--3-3-3-|3----3--3--3--3--3-3--3-|
--0----0--0--0--0--0-0-0-|0----0--0--0--0--0-0--0-|
--0----0--0--0--0--0-0-0-|0----0--0--0--0--0-0--0-|
--2----2--2--2--2--2-2-2-|2----2--2--2--2--2-2--2-|
--3----3--3--3--3--3-3-3-|0----0--0--0--0--0-0--0-|

Love
Love is not your friend

And Love                             Love is not the beginning
|------------------------|--------------------------|
|--3---------------3-----|--3----------3s--5--3--0--|
|--2----2-------------0--|--2----2-----2s--4--2--0--|
|--0-------0--2----------|--0-------0---------------|
|-------------3----------|--------------------------|
|------------------------|--------------------------|

     
--3----3--3--3--3--3-3--3-|--3----3--3--3--3--3--3--|
--3----3--3--3--3--3-3--3-|--3----3--3--3--3--3--3--|
--0----0--0--0--0--0-0--0-|--0----0--0--0--0--0--0--|
--0----0--0--0--0--0-0--0-|--2----2--2--2--2--2--2--|
--2----2--2--2--2--2-2--2-|--2----2--2--2--2--2--2--|
--3----3--3--3--3--3-3--3-|--0----0--0--0--0--0--0--|

And love
Love is not the end


And love isn't just      Liking someone a lot   I don't know what love is
--3---3------------------|-----2--2--2--3--3--|----------------|
--3---3-------3--3--3-3--|-----3--3--3--3--3--|--3--3--3-3--3--|
--0---0-------0--0--0-0--|-----2--2--2--0--0--|--0--0--0-0--0--|
--0---0-------0--0--0-2--|-----0--0--0--------|--0--0--0-2--2--|
--2---2-------2--2--2-3--|--------------------|--2--2--2-3--3--|
--3---3------------------|--------------------|----------------|


 But I know what love is not                For      the 
--------3---------------|--2--3p--2-----------|--3----3--3--3--3--3-3--3-|
--3--3--3----3----3--3--|--3--3---3-----------|--3----3--3--3--3--3-3--3-|
--0--0--0----0----0--0--|--2--2---2-----------|--0----0--0--0--0--0-0--0-|
--2--0--0----0----2--0--|--0--0---0-----------|--0----0--0--0--0--0-0--0-|
--3--2--2----2----3--2--|---------------------|--2----2--2--2--2--2-2--2-|
--------3---------------|---------------------|--3----3--3--3--3--3-3--3-|


feint                hearted                        You turn your back and it is gone
--3----3--3--3--3--3-3--3-|--3----3--3--3--3--3--3--|-----------------------|
--3----3--3--3--3--3-3--3-|--3----3--3--3--3--3--3--|--1----0--1-0--1-0--1--|
--0----0--0--0--0--0-0--0-|--0----0--0--0--0--0--0--|--0----0--0-0--0-0--0--|
--0----0--0--0--0--0-0--0-|--2----2--2--2--2--2--2--|--2----0--2-0--2-0--2--|
--2----2--2--2--2--2-2--2-|--2----2--2--2--2--2--2--|--3----3--3-3--3-3--3--|
--3----3--3--3--3--3-3--3-|--0----0--0--0--0--0--0--|-----------------------|


For     the                 feint              hearted                 
--3--3--3--3--3--3-3--3-|--3----3--3--3--3--3-3--3-|--3----3--3--3--3--3--3-|
--3--3--3--3--3--3-3--3-|--3----3--3--3--3--3-3--3-|--3----3--3--3--3--3--3-|
--0--0--0--0--0--0-0--0-|--0----0--0--0--0--0-0--0-|--0----0--0--0--0--0--0-|
--0--0--0--0--0--0-0--0-|--0----0--0--0--0--0-0--0-|--2----2--2--2--2--2--2-|
--2--2--2--2--2--2-2--2-|--2----2--2--2--2--2-2--2-|--2----2--2--2--2--2--2-|
--3--3--3--3--3--3-3--3-|--3----3--3--3--3--3-3--3-|--0----0--0--0--0--0--0-|


It can melt a heart of stone  
--0----------------------|--2----0----3----2----|
--1----------------1-----|--3----3----3----3----|
--0-------------0-----0--|--2----2----2----2----|
--2----------2-----------|--0----0----0----0----|
--3-------3--------------|----------------------|
-------3-----------------|----------------------|

       And nobody can make it    on their own                    
--0--2-------------------------|-----------------|-2-----------------|
--3--3-------3-----------3-----|-----------------|-3-----------------|
--2--2-------0--0-----------0--|--0----0----0----|-2-----------------|
--0--0----2-----------0--------|--2----0----2----|-0-----------------|
--------3-------------2--------|--3----2----0----|-------------------|
-------------------3-----------|-----------------|-------------------|


(Solo:) (First part with delay)

E||--5---------5------7-----|-------7-------7----------------------|
B||--8b--------8b----10b----|--10b-----10b-----10b--10pbr----8~----|
G||-------------------------|--------------------------------------|
D||-------------------------|--------------------------------------|
A||-------------------------|--------------------------------------|
E||-------------------------|--------------------------------------|

---------10-------------7--7~--|-------------------------------------|
--10b----------10pbr-----------|--10pbr----8~--7-----7--7-----7------|
-------------------------------|---------------9b-------9b-------9b--|
-------------------------------|-------------------------------------|
-------------------------------|-------------------------------------|
-------------------------------|-------------------------------------|

------------------------------|-------------------------------|
------------------------------|----------------------------8--|
--9pbr----7-------------------|--5-------------------7--9-----|
-------------9--7/--5---------|--5~----7p--5--7/--9-----------|
-----------------------7--5~--|-------------------------------|
------------------------------|-------------------------------|

--------------10----|--15b----15----12--12-----12---12----|
--10b----L----------|---x---------------15b----15b--15----|
--------------------|---x---------------------------------|
--------------------|-------------------------------------|
--------------------|-------------------------------------|
--------------------|-------------------------------------|

-------------------------------12--|----------------------------------------|
--12----15p--12-------12-----------|-------15-------------------------------|
-----------------14b------14b------|--14b------14b--14pbr~--12------12~-----|
-----------------------------------|-------------------------14-------14-14-|
-----------------------------------|----------------------------------------|
-----------------------------------|----------------------------------------|
  
--15b----12h--15--12h--15--------------------|
---x-----------------------15p--12--15p--12--|
---x-----------------------------------------|
---------------------------------------------|
---------------------------------------------|
---------------------------------------------|

--------------------------------------|-----------------------------------|
--------------------------------------|---------------------------15------|
--14p--12--14p--12--------------------|----------14-------16--14------14--|
--------------------14p--12--14p--12--|--14/-16------16~------------------|
--------------------------------------|-----------------------------------|
--------------------------------------|----------------------------------|

          
----------17b----17b----17br----|--15--15------------------|---------|
--17--15------------------------|--15--15------------------|---------|
--------------------------------|--16--16~-----------------|---------|
--------------------------------|------------------x-------|---------|
--------------------------------|------------------x-------|---------|
--------------------------------|-----------------15//-----|---------|


(Outro Solo:)

--------------------------|---------------15----------|
--12----------13----12----|--13p--12------15----------|
--12----12----12----12----|-----------14--12----12----|
--------12----------------|---------------------14----|
--------------------------|---------------------------|
--------------------------|---------------------------|
  
--------------------15----|--------------------------|
--17----17----17----15----|--12----------13----12----|
--17----16----14----------|--12----12----12----12----|
--------------------------|--------12----------------|
--------------------------|--------------------------|
--------------------------|--------------------------|

---------------15----------|------------------------------------|
--13p--12------15----------|-------------15--12-----------------|
-----------14--12----12----|---------12----------14--12---------|
---------------------14----|--12-14----------------------14--12-|
---------------------------|------------------------------------|
---------------------------|------------------------------------|
       
-----------------------||
-----------------------||
--12----12-------------||
--12----12-------------||
--10----10~------------||
-----------------------||
Добавлено: 30.08.2013
Другие материалы по этой песне:

Страница создана 30.08.2013
http://primanota.ru/darkness/love-is-not-the-answer-chords.htm
Привет, Гость.
Предлагаем пройти революционный курс по гитаре.
Подарок от PrimaNota.Ru, забирай!