PrimaNota.ru - самый крупный в мире бесплатный архив песенных текстов, аккордов, табулатур и нот


Darkness - Knockers - текст песни, таба, бас-таба, видео

Регистрация Запомнить меня
Войти через:  Facebook Google Twitter Vk Yandex Mail.ru

Darkness - Knockers - текст песни, таба, бас-таба, видео

Печатать
Просмотров: 216
Band: THE DARKNESS
Song: KNOCKERS
Album: ONE WAY TICKET TO HELL ...AND BACK

Tab by: Anders L.A.


Intro
e|------------------------------------------------------------|
B|-x-x-x-x-x--x-x-x-x-x--x-x---x-x-x-x-x--x-x-x-x-x--x-x------|
G|-x-x-x-x-x--x-x-x-x-x--x-x---x-x-x-x-x--x-x-x-x-x--x-x------|
D|-9-9-9-9-9--9-9-9-9-9--9-9---9-9-9-9-9--9-9-9-9-9--9-9------|
A|-7-7-7-7-7--7-7-7-7-7--7-7---7-7-7-7-7--7-7-7-7-7--7-7------|
E|------------------------------------------------------------| 2x


Verse
e|------------------------------------------------------------|
B|-x-x-x-x-x--x-x-x-x-x--x-x---x-x-x-x-x--x-x-x-x-x--x-x------|
G|-x-x-x-x-x--x-x-x-x-x--x-x---x-x-x-x-x--x-x-x-x-x--x-x------|
D|-9-9-9-9-9--9-9-9-9-9--9-9---9-9-9-9-9--9-9-9-9-9--9-9------|
A|-7-7-7-7-7--7-7-7-7-7--7-7---7-7-7-7-7--7-7-7-7-7--7-7------|
E|------------------------------------------------------------|

e|------------------------------------------------------------|
B|------------------------------------------------------------|
G|-x-x-x-x-x--x-x-x-x-x--x-x---x-x-x-x-x--x-x-x-x-x--x-x------|
D|-x-x-x-x-x--x-x-x-x-x--x-x---x-x-x-x-x--x-x-x-x-x--x-x------|
A|-7-7-7-7-7--7-7-7-7-7--7-7---7-7-7-7-7--7-7-7-7-7--7-7------|
E|-5-5-5-5-5--5-5-5-5-5--5-5---5-5-5-5-5--5-5-5-5-5--5-5------| 2x

 guitar 1
e|--------------------------------------------------------------|
B|-x-x-x-x-x--x-x-x-x-x--x-x---x-x-x-x-x--x-x-x-x-x--x-x--------|
G|-x-x-x-x-x--x-x-x-x-x--x-x---x-x-x-x-x--x-x-x-x-x--x-x--------|
D|-9-9-9-9-9--9-9-9-9-9--9-9---9-9-9-9-9--9-9-9-9-9--9-9--------|
A|-7-7-7-7-7--7-7-7-7-7--7-7---7-7-7-7-7--7-7-7-7-7--7-7--------|
E|--------------------------------------------------------------|
 guitar 2
e|------------------------------------------------2------------|
B|------------------------------------------------3------------|
G|-x----------------------------------------------2------------|
D|-2----------------------------------------------0------------|
A|-2-------------------------------------------------4v--------|
E|-0-----------------------------------------------------------|

e|--------------------------------------------------------------|
B|--------------------------------------------------------------|
G|-x-x-x-x-x--x-x-x-x-x--x-x-----x-x-x-x-x--x-x-x-x-x--x-x------|
D|-x-x-x-x-x--x-x-x-x-x--x-x-----x-x-x-x-x--x-x-x-x-x--x-x------|
A|-7-7-7-7-7--7-7-7-7-7--7-7-----7-7-7-7-7--7-7-7-7-7--7-7------|
E|-5-5-5-5-5--5-5-5-5-5--5-5-----5-5-5-5-5--5-5-5-5-5--5-5------|

e|--------------------------------------------------------------|
B|-x------------------------------------------------------------|
G|-2------------------------------------------------------------|
D|-2------------------------------------------------------------|
A|-0------------------------------------------------------------|
E|--------------------------------------------------------------| 2x


Bridge
 guitar 1
e|----------------------------------------------------------------|
B|----------------------------------------------------------------|
G|-x-x-x-x-x--x-x-x-x-x--x-x---x-x-x-x-x--x-x-x-x-x--x-x--x-x-----|
D|-x-x-x-x-x--x-x-x-x-x--x-x---x-x-x-x-x--x-x-x-x-x--x-x--x-x-----|
A|-4-4-4-4-4--4-4-4-4-4--4-4---7-7-7-7-7--7-7-7-7-7--7-7--7-7-----|
E|-2-2-2-2-2--2-2-2-2-2--2-2---5-5-5-5-5--5-5-5-5-5--5-5--5-5-----|
 guitar 2
e|----------------------------------------------------------------|
B|-----------------------------x----------------------------------|
G|-x---------------------------2----------------------------------|
D|-4---------------------------2----------------------------------|
A|-4---------------------------0----------------------------------|
E|-2--------------------------------------------------------------|

e|----------------------------------------------------------------|
B|----------------------------------------------------------------|
G|-x-x-x-x-x--x-x-x-x-x--x-x---x-x-x-x-x--x-----------------------|
D|-x-x-x-x-x--x-x-x-x-x--x-x---x-x-x-x-x--x-----------------------|
A|-4-4-4-4-4--4-4-4-4-4--4-4---7-7-7-7-7--9-----------------------|
E|-2-2-2-2-2--2-2-2-2-2--2-2---5-5-5-5-5--7-----------------------|
 |
e|----------------------------------------------------------------|
B|-----------------------------x-x-x-x----x-----------------------|
G|-x---------------------------2-2-2-2----4-----------------------|
D|-4---------------------------2-2-2-2----4-----------------------|
A|-4---------------------------0-0-0-0----2-----------------------|
E|-2--------------------------------------------------------------|


Chorus
e|-----------2----------------2-2---------------------------|
B|-----------3------x---------3-3---x-x---------------------|
G|-x---------2------2---------2-2---2-2---------------------|
D|-2---------0------2---------0-0---2-2---------------------|
A|-2-----------4v---0---------------0-0---------------------|
E|-0--------------------------------------------------------| 2x


Verse
e|--------------------------------------------------------------|
B|-x-x-x-x-x--x-x-x-x-x--x-x---x-x-x-x-x--x-x-x-x-x--x-x--------|
G|-x-x-x-x-x--x-x-x-x-x--x-x---x-x-x-x-x--x-x-x-x-x--x-x--------|
D|-9-9-9-9-9--9-9-9-9-9--9-9---9-9-9-9-9--9-9-9-9-9--9-9--------|
A|-7-7-7-7-7--7-7-7-7-7--7-7---7-7-7-7-7--7-7-7-7-7--7-7--------|
E|--------------------------------------------------------------|
 |
e|------------------------------------------------2------------|
B|------------------------------------------------3------------|
G|-x----------------------------------------------2------------|
D|-2----------------------------------------------0------------|
A|-2-------------------------------------------------4v--------|
E|-0-----------------------------------------------------------|

e|--------------------------------------------------------------|
B|--------------------------------------------------------------|
G|-x-x-x-x-x--x-x-x-x-x--x-x-----x-x-x-x-x--x-x-x-x-x--x-x------|
D|-x-x-x-x-x--x-x-x-x-x--x-x-----x-x-x-x-x--x-x-x-x-x--x-x------|
A|-7-7-7-7-7--7-7-7-7-7--7-7-----7-7-7-7-7--7-7-7-7-7--7-7------|
E|-5-5-5-5-5--5-5-5-5-5--5-5-----5-5-5-5-5--5-5-5-5-5--5-5------|
 |
e|--------------------------------------------------------------|
B|-x------------------------------------------------------------|
G|-2------------------------------------------------------------|
D|-2------------------------------------------------------------|
A|-0------------------------------------------------------------|
E|--------------------------------------------------------------| 2x


Bridge
e|----------------------------------------------------------------|
B|----------------------------------------------------------------|
G|-x-x-x-x-x--x-x-x-x-x--x-x---x-x-x-x-x--x-x-x-x-x--x-x--x-x-----|
D|-x-x-x-x-x--x-x-x-x-x--x-x---x-x-x-x-x--x-x-x-x-x--x-x--x-x-----|
A|-4-4-4-4-4--4-4-4-4-4--4-4---7-7-7-7-7--7-7-7-7-7--7-7--7-7-----|
E|-2-2-2-2-2--2-2-2-2-2--2-2---5-5-5-5-5--5-5-5-5-5--5-5--5-5-----|
 |
e|----------------------------------------------------------------|
B|-----------------------------x----------------------------------|
G|-x---------------------------2----------------------------------|
D|-4---------------------------2----------------------------------|
A|-4---------------------------0----------------------------------|
E|-2--------------------------------------------------------------|

e|----------------------------------------------------------------|
B|----------------------------------------------------------------|
G|-x-x-x-x-x--x-x-x-x-x--x-x---x-x-x-x-x--x-----------------------|
D|-x-x-x-x-x--x-x-x-x-x--x-x---x-x-x-x-x--x-----------------------|
A|-4-4-4-4-4--4-4-4-4-4--4-4---7-7-7-7-7--9-----------------------|
E|-2-2-2-2-2--2-2-2-2-2--2-2---5-5-5-5-5--7-----------------------|
 |
e|----------------------------------------------------------------|
B|-----------------------------x-x-x-x----x-----------------------|
G|-x---------------------------2-2-2-2----4-----------------------|
D|-4---------------------------2-2-2-2----4-----------------------|
A|-4---------------------------0-0-0-0----2-----------------------|
E|-2--------------------------------------------------------------|


Chorus
e|-----------2----------------2-2---------------------------|
B|-----------3------x---------3-3---x-x---------------------|
G|-x---------2------2---------2-2---2-2---------------------|
D|-2---------0------2---------0-0---2-2---------------------|
A|-2-----------4v---0---------------0-0---------------------|
E|-0--------------------------------------------------------| 2x


Solo (Rhythm)
e|------------------------------------------------------------|
B|-x-x-x-x-x--x-x-x-x-x--x-x---x-x-x-x-x--x-x-x-x-x--x-x------|
G|-x-x-x-x-x--x-x-x-x-x--x-x---x-x-x-x-x--x-x-x-x-x--x-x------|
D|-9-9-9-9-9--9-9-9-9-9--9-9---9-9-9-9-9--9-9-9-9-9--9-9------|
A|-7-7-7-7-7--7-7-7-7-7--7-7---7-7-7-7-7--7-7-7-7-7--7-7------|
E|------------------------------------------------------------|

e|------------------------------------------------------------|
B|------------------------------------------------------------|
G|-x-x-x-x-x--x-x-x-x-x--x-x---x-x-x-x-x--x-x-x-x-x--x-x------|
D|-x-x-x-x-x--x-x-x-x-x--x-x---x-x-x-x-x--x-x-x-x-x--x-x------|
A|-7-7-7-7-7--7-7-7-7-7--7-7---7-7-7-7-7--7-7-7-7-7--7-7------|
E|-5-5-5-5-5--5-5-5-5-5--5-5---5-5-5-5-5--5-5-5-5-5--5-5------| 2x


Chorus
e|-----------2----------------2-2---------------------------|
B|-----------3------x---------3-3---x-x---------------------|
G|-x---------2------2---------2-2---2-2---------------------|
D|-2---------0------2---------0-0---2-2---------------------|
A|-2-----------4v---0---------------0-0---------------------|
E|-0--------------------------------------------------------| 4x

e|----------|
B|----------|
G|-x--------|
D|-2--------|
A|-2--------|
E|-0--------|


Listen to the song for timing, etc..
Добавлено: 12.07.2012
Другие материалы по этой песне:

Страница создана 28.02.2012
http://primanota.ru/darkness/knockers-chords.htm
Привет, Гость.
Предлагаем пройти революционный курс по гитаре.
Подарок от PrimaNota.Ru, забирай!