PrimaNota.ru - самый крупный в мире бесплатный архив песенных текстов, аккордов, табулатур и нот


Darkness - I Bellieve In A Thing Called Love - таба, видео

Регистрация Запомнить меня
Войти через:  Facebook Google Twitter Vk Yandex Mail.ru

Darkness - I Bellieve In A Thing Called Love - таба, видео

Печатать
Просмотров: 85
The Song is Exellent! I took a lot of time doing this so please dont just look at it and think its just like the others! Please Try It And RATE It!!!!
Thanks
Enjoy!

Notation Legend
b=Bend
r=Release
/=Slide
h=Hammer On
p=Pull Off
~=let Ring


Intro/Verse(s)
E|------------------------------------------------------------------------------|
B|------------------------------------------------------------------------------|
G|------------------------------------------------------------------------------|
D|-----------------------------------------4----7--9----9-9--2-2--9--7----------|
A|-----------------------------------------4----7--9----9-9--2-2--9--7----------|
E|----2----5--7----7-7--0-0--7--5-4~5-7----2----5--7----7-7--0-0--7--5-4~5-7----|


E|-----------------------------------------|
B|-----------------------------------------|
G|-----------------------------------------|
D|----4----7--9----9-9--2-2--9--7----------|
A|----4----7--9----9-9--2-2--9--7----------|
E|----2----5--7----7-7--0-0--7--5-4~5-7----|

Pre-Chorus
E|--------------------------------------------------------------|
B|--------------------------------------------------------------|
G|--------------------------------------------------------------|
D|----2----4----4-4-4-4-4-4-4-4----2----4----4-4-4-4-4-4-4-4----| 
A|----2----4----4-4-4-4-4-4-4-4----2----4----4-4-4-4-4-4-4-4----| 
E|----0----2----2-2-2-2-2-2-2-2----0----2----2-2-2-2-2-2-2-2----| 


E|--------------------------------------------| 
B|--------------------------------------------| 
G|--------------------------------------------| 
D|----2----4----7--8--9----9-9-9-9-9-9-9-9----|
A|----2----4----7--8--9----9-9-9-9-9-9-9-9----| 
E|----0----2----5--6--7----7-7-7-7-7-7-7-7----| 


Chorus
E|---------------------------------------|
B|---------------------------------------|
G|---------------------------------------|
D|---------------------------------------|
A|---------------------------------------|
E|----0--2--4--5--4--2--2--5--7--9--7----|

Solo
E|---------------------|--12------12------12--------|----------16------------|
B|---------------------|--12b---------12b-----12r---|----------------17------|
G|---------------------|----------------------------|--------------------16--|
D|------7------7--7----|----------------------------|------------------------|
A|------5------5--5----|----------------------------|------------------------|
E|---------------------|----------------------------|------------------------|


E|----------------------|--------------------|------------------|
B|----------------------|--------14b---------|------------------|
G|--13------------------|--------------------|------------------|
D|----------14----------|--------------------|------------------|
A|----------------------|--------------------|------------------|
E|----------------------|--------------------|------------------|

Back to the very start of the intro 

Pre-Chorus

Chorus


Second Solo                                                                            
E|------------------------|-----------------------|--------------------------|
B|------------------------|-----------------------|--5--5--5--5--5--5--5--7b-|
G|------------------------|-----------------------|--7b-7b-7b-7b-7b-7b-7b----|
D|--6----6----6--4/-6--7--|----7--7--7----7--7----|--------------------------|
A|--4----4----4--2/-4--5--|----5--5--5----5--5----|--------------------------|
E|------------------------|-----------------------|--------------------------|


                                                                           
E|----7-----7-------------|--0----0----0----0----|--------------------------|
B|-------7b----7r---5--7--|--5~---4~---2~---0----|--------------------------|
G|------------------------|-----------------4~---|--1----2----4----4~-------|
D|------------------------|----------------------|--------------------------|
A|------------------------|----------------------|--------------------------|
E|------------------------|----------------------|--------------------------|

                                                                        
E|------------------------|------------------------|-------0----0----0----|
B|------------------------|------------------------|-------5~---4~---0----|
G|------------------------|------------------------|-----------------4~---|
D|-4h6~--6~---6~-4--2-----|-2h4~---4~---4~-6--4--2-|--2-------------------|
A|---------------------4--|------------------------|----------------------|
E|------------------------|------------------------|----------------------|

             
E|--------------------------|----------------------------|
B|--------------------------|--10----10------10--10--9---|
G|--1----2----4----4~-------|--12b---12b-----12b-12b-11b-|
D|--------------------------|----------------------------|
A|--------------------------|----------------------------|
E|--------------------------|----------------------------|

                                                                 
E|----9-----------9--------|--------------------------------------|
B|-------9--9--------------|--14-12-9-14-12-9---------------------|
G|----------11b------11r---|------------------11-9-11h9-----9--9--|
D|-------------------------|----------------------------11--------|
A|-------------------------|--------------------------------------|
E|-------------------------|--------------------------------------|

                                                                               
E|--------------------------|--------------------------|------------------------|
B|--------------------------|--------------------------|------------------------|
G|----11--9--------9--------|--------------------------|----------9-------------|
D|-----------11~------11----|--------------9--------9--|----11---------11----9--|
A|--------------------------|--11----11-------11-------|------------------------|
E|--------------------------|--------------------------|------------------------|

                                                            
E|-----------------------------|-------------------------------|
B|--------9------9------9------|--9----10----12----12----12/---|
G|--------9------9------9------|--9----9-----11----11----11/---|
D|--11-------11-----11-----11--|-------------------------------|
A|-----------------------------|-------------------------------|
E|-----------------------------|-------------------------------|

Pre-Chorus

Drums

Guitar 2 Chorus


Final Solo                                                      
E|----------------------|------------12----------------|
B|----------------16b---|---------------15h12/11-12h11-|
G|----------------------|------------------------------|
D|------7------7--7-----|------------------------------|
A|------5------5--5-----|------------------------------|
E|----------------------|------------------------------|

                                                                              
E|----------------------------------|------------------------------------------|
B|----------------------------------|------------------------------------------|
G|--14h12-14b-12~---------------12b-|------------12b-----------12b-------------|
D|--------------------14-12-14------|--14-12-14------14-12-14------14-13-12----|
A|----------------------------------|---------------------------------------14-|
E|----------------------------------|------------------------------------------|

                                                                  
E|------------------------------|--4h0-0-5h0-0-7h0-0-9h0-0-7h0-9h0-|
B|------------------------------|----------------------------------|
G|------------------------------|----------------------------------|
D|------------------------------|----------------------------------|
A|--13--12--10b-----------------|----------------------------------|
E|--------------12-10-12--------|----------------------------------|

                                          
E|--10h0-9h0-10h0-12h0-14h0-12h0-14h0-16h0-|
B|-----------------------------------------|
G|-----------------------------------------|
D|-----------------------------------------|
A|-----------------------------------------|
E|-----------------------------------------|


E|--17h0-0-16h0-0-17h0-0-16h0-0-17h0-19h0-|--21h0-19h0-21h0-22-0-22b-------|
B|----------------------------------------|--------------------------------|
G|----------------------------------------|--------------------------------|
D|----------------------------------------|--------------------------------|
A|----------------------------------------|--------------------------------|
E|----------------------------------------|--------------------------------|

                                                                           
E|-------------------------|-----------------------|-------------------------|
B|-------------------------|-----------------------|-------------------------|
G|-------------------------|-----------------------|-------------------------|
D|-----------2-------------|----------4----6-------|-----------2-------------|
A|-----------0----------4--|-------0--2----4--2~---|-----------0----------4--|
E|--0--2--4-------4--0--2--|----4------------------|--0--2--4-------4--0--2--|

                                                                          
E|-----------------------|-------------------------|-----------------------|
B|-----------------------|-------------------------|-----------------------|
G|-----------------------|-------------------------|-----------------------|
D|----------4----6-------|-----------2-------------|----------4----6-------|
A|-------0--2----4--2~---|-----------0----------4--|-------0--2----4--2~---|
E|----4------------------|--0--2--4-------4--0--2--|----4------------------|

                                                                        
E|-------------------------|-----------------------|---------------------|
B|-------------------------|-----------------------|---------------15b---|
G|-------------------------|-----------------------|---------------------|
D|-----------2-------------|----------4----6-------|--2------------------|
A|-----------0----------4--|-------0--2----4--2~---|--2------------------|
E|--0--2--4-------4--0--2--|----4------------------|--0------------------|


E|--------------------------|------------------------------------------|
B|--------------12h15h12/11h|--14h11/10h13h10/9h12h9/8h11h8/7h10h7/-17-|
G|--------------------------|------------------------------------------|
D|--------------------------|------------------------------------------|
A|--------------------------|------------------------------------------|
E|--------------------------|------------------------------------------|

                                                    
E|---0----------------|-------------------|----------|
B|---0--5ph-----------|-------------------|----------|
G|--------------------|-------------------|----------|
D|--------------------|------2------------|----------|
A|--------------------|------2------------|----------|
E|--------------------|------0------------|----------|


Dave

dave_grunge_942@hotmail.com



                                             
                                                               



Добавлено: 14.07.2013
Другие материалы по этой песне:
  • Аккорды и текст

Страница создана 14.07.2013
http://primanota.ru/darkness/i-bellieve-in-a-thing-called-love-chords.htm
Привет, Гость.
Предлагаем пройти революционный курс по гитаре.
Подарок от PrimaNota.Ru, забирай!