PrimaNota.ru - самый крупный в мире бесплатный архив песенных текстов, аккордов, табулатур и нот


Darkness - Grief Hammer - текст песни, таба, видео

Регистрация Запомнить меня
Войти через:  Facebook Google Twitter Vk Yandex Mail.ru

Darkness - Grief Hammer - текст песни, таба, видео

Печатать
Просмотров: 115
GRIEF HAMMER
B-side to 'One Way Ticket'.

Intro:

e-------------------------------------|
B-------------------------------------|
G--5--------4----------0/2-2—-0/2-2---|
D--5--------4----------0/2-2--0/2-2---|
A--0-000000-0-000000---0/0-0--0/0-0---|
E-------------------------------------| 3x

e--222222-------------------------|
B--333333-------------------------|
G--222222-------------------------|
D--000000-------------------------|
A--000000-------------------------|
E---------------------------------|


Chorus:
                            GRIEF!                  YES IT'S GRIEF..
e---------------------------------------------------------------------|
B--------------------------------------------------------7-7----------|
G-2------2--------2----2----2------2------2--------------7-7----------|
D-2------2--------2----2----2------2------2---------3-3--7-7----------|
A-0------0--------0----0----0------0------0---------3-3--5-5----------|
E---3-0-----3-0-----3b---3b----------3-0-----3-0----1-1---------------| 2x


Verse:

            DIY NOT           COMMISSION MY ERECTION
e----------------------------2-2-2--------|
B----------------------------3-3-3--------|
G--2-2--2-2-2-------2-2--2---2-2-2--------|
D--2-2--2-2-2-------2-2--2----------5/5---|
A--0-0—-0-0-0-------0-0--0----------3/2---|
E-------------0-3-4-----------------------|

           TOOL FOR HIRE     MANUAL LOVE
e----------------------------2-2-2-2-2-2--|
B----------------------------3-3-3-3-3-3--|
G--2-2--2-2-2-------2-2--2---2-2-2-2-2-2--|
D--2-2--2-2-2-------2-2--2----------------|
A--0-0—-0-0-0-------0-0--0----------------|
E-------------0-3-4-----------------------|
  
        RIGGER BOOTS, DUNGAREES AND A GRIMACE
e------------------------------|
B------------------------------|
G—5-5--5-5-5---4-4-4--7-7-7-7--|
D-5-5--5-5-5---4-4-4--7-7-7-7--|
A—3-3--3-3-3---2-2-2--5-5-5-5--|
E------------------------------|


CHORUS

2nd VERSE

CHORUS

INTRO

SOLO (play CHORUS tab)


End with:
                            GRIEF!
e-------------------------------|
B-------------------------------|
G-2------2--------2----2----2---|
D-2------2--------2----2----2---|
A-0------0--------0----0----0---|
E---3-0-----3-0-----3b---3b-----|


Listen to the song for timing, etc..
Добавлено: 16.11.2013
Другие материалы по этой песне:
  • Аккорды и текст

Страница создана 30.06.2012
http://primanota.ru/darkness/grief-hammer-chords.htm
Привет, Гость.
Предлагаем пройти революционный курс по гитаре.
Подарок от PrimaNota.Ru, забирай!