PrimaNota.ru - самый крупный в мире бесплатный архив песенных текстов, аккордов, табулатур и нот


Darkness - English Country Garden - текст песни, таба, видео

Регистрация Запомнить меня
Войти через:  Facebook Google Twitter Vk Yandex Mail.ru

Darkness - English Country Garden - текст песни, таба, видео

Печатать
Просмотров: 115
Band: THE DARKNESS
Song: ENGLISH COUNTRY GARDEN
Album: ONE WAY TICKET TO HELL ...AND BACK
Tabbed by: Anders L.A.


Post-Chorus
e|------------------------------------------------------|
B|------------------------------------------------------|
G|--------9-----9-----------------9-----9---------------|
D|--------9-----9-----------------9-----9---------------|
A|\\------7-----7-----7p5-5-------7-----7-----7p5-5-----|
E|\\----0---0-0---5h7-----------0---0-0---5h7-----------|


Verse
   It was a cigarette break
e|------------------------------------------------------------------|
B|-----------7--------------------------------7---------------------|
G|--9--4/6-8---8-6p4h6---------------9--4/6-8---8p6-----------------|
D|--9--------------------------------9--------------6---------------|
A|--7--------------------------------7-----------------4v-6v-7v-9v--|
E|--0------------------2v-4v-5v-7v---0------------------------------|

  She said 'Have you got a match?'
e|------------------------------------------------------------------|
B|-----------7--------------------------------7---------------------|
G|--9--4/6-8---8-6p4h6---------------9--4/6-8---8p6-----------------|
D|--9--------------------------------9--------------6---------------|
A|--7--------------------------------7-----------------4v-6v-7v-9v--|
E|--0------------------2v-4v-5v-7v---0------------------------------|


Bridge
  Frolicking in the..
e|-------------------------------------|
B|-------------------------------------|
G|--2----2/6----6/9----9\4-4-4-4-4-----|
D|--2----2/6----6/9----9\4-4-4-4-4-----|
A|--0----0/4----4/7----7\2-2-2-2-2-----|
E|-------------------------------------|


Chorus
  I carved U 4 Me..
e|------------------------------------------------------|
B|------------------------------------------------------|
G|------------------------2-------------------------2---|
D|------------------------2-------------------------2---|
A|--7v-6v-5v-7p4-3v-2v-3v-0---7v-6v-5v-7p4-3v-2v-3v-0---|
E|------------------------------------------------------|
                                           In an english country garden..
e|----------------------------------------------------------------------|
B|----------------------------------------------------------------------|
G|--9--8--7--6--5--5--5---2---9--8--7--6--------------------------4-4---|
D|--9--8--7--6--5--5--5---2---9--8--7--6--5-5-5-5-5-5-5-5-5-5-5-5-4-4---|
A|--7--6--5--4--3--2--3---0---7--6--5--4--5-5-5-5-5-5-5-5-5-5-5-5-2-2---|
E|----------------------------------------3-3-3-3-3-3-3-3-3-3-3-3-------|

POST-CHORUS
VERSE
BRIDGE
CHORUS

Solo
e|---------------------------------------------------------------------|
B|---------------------------------------------------------------------|
G|--9-9-9-9-9-9-9-9----------------------------------------------------|
D|--9-9-9-9-9-9-9-9----------------------------------------------------|
A|--7-7-7-7-7-7-7-7-6-6-6-6-6-6-6-6-7-7-7-7-7-7-7-7--4-4-6-6-7-7-9-9---|
E|------------------4-4-4-4-4-4-4-4-5-5-5-5-5-5-5-5--2-2-4-4-5-5-7-7---|

e|-----------------------------------------------------------------------|
B|-----------------------------------------------------------------------|
G|--9-9-9-9-9-9-9-9------------------------------------------------------|
D|--9-9-9-9-9-9-9-9-----------------6-6-6-6-6-6-6-6--6-6-8-8-9-9-11-11---|
A|--7-7-7-7-7-7-7-7-6-6-6-6-6-6-6-6-4-4-4-4-4-4-4-4--4-4-6-6-7-7-9--9----|
E|------------------4-4-4-4-4-4-4-4--------------------------------------|

e|---------------------------------x------|
B|---------------------------------x------|
G|--2---2/6---6/9---9\4-4-4-4-4----9------|
D|--2---2/6---6/9---9\4-4-4-4-4----9------|
A|--0---0/4---4/7---7\2-2-2-2-2----7------|
E|---------------------------------0------|


Chorus
  The yield was meagre..
e|--------------------------------------|
B|--------------------------------------|
G|-------------------------------2------|
D|-------------------------------2------|
A|--7v-6v-5v-7p4-3v-2v-3v-3v-4v--0------|
E|--------------------------------------|

   The seeds we scattered.
e|----------------------------------------------------------------------|
B|----------------------------------------------------------------------|
G|--9--8--7--6--5--5--5---2---9--8--7--6--------------------------4-4---|
D|--9--8--7--6--5--5--5---2---9--8--7--6--5-5-5-5-5-5-5-5-5-5-5-5-4-4---|
A|--7--6--5--4--3--2--3---0---7--6--5--4--5-5-5-5-5-5-5-5-5-5-5-5-2-2---|
E|----------------------------------------3-3-3-3-3-3-3-3-3-3-3-3-------|


Post-Chorus
                           Jardin Jardin Jardin Jardin Woooh!
e|-----------------------------------------------------x---|
B|-----------------------------------------------------x---|
G|------9-----9-----------------9-----9----------------9---|
D|------9-----9-----------------9-----9----------------9---|
A|------7-----7-----7p5-5-------7-----7-----7p5-5------7---|
E|----0---0-0---5h7-----------0---0-0---5h7------------0---|


Listen to the song for timing, etc..
Добавлено: 31.08.2013
Другие материалы по этой песне:
  • Аккорды и текст

Страница создана 12.05.2012
http://primanota.ru/darkness/english-country-garden-chords.htm
Привет, Гость.
Предлагаем пройти революционный курс по гитаре.
Подарок от PrimaNota.Ru, забирай!