PrimaNota.ru - самый крупный в мире бесплатный архив песенных текстов, аккордов, табулатур и нот


Darkness - A thing called love - таба, видео

Регистрация Запомнить меня
Войти через:  Facebook Google Twitter Vk Yandex Mail.ru

Darkness - A thing called love - таба, видео

Печатать
Просмотров: 80


This first bit is hard.But the more you play it the easier it is.To get the rythem 
right,try playing along to the song.
E -------------------------------------
B -------------------------------------
G -------------------------------------
D --2-2-4-4--4-4-----4-4-2-2-----------          
A 4-0-0-2-2--2-2-2-2-2-2-0-0--0-2-4---4
E 2 -------------0-0--------4-------0-2
             PLAY 3 TIMES

E --------------------------------------  
B --------------------------------------
G --------------------------------------
D -2-2-4-4--4-4-----4-4-2-2--2---------
A -0-0-2-2--2-2-2-2-2-2-0-0--0----2-2-4
E --------------0-0--------4--4-2-0-0-2

RIGHT, THIS NEXT BIT IS MOSTLY PALM MUTED(*=PALM MUTED)
E -----------------------------------------------
B -----------------------------------------------
G -----------------------------------------------
D *-*-*-*-*-*-*-*-*-*-*-----*-*-*-*-*-*-*-*-*-*-*
A 4-4-4-4-4-4-4-4-4-4-4-2-4-4-4-4-4-4-4-4-4-4-4-4
E 2-2-2-2-2-2-2-2-2-2-2-0-2-2-2-2-2-2-2-2-2-2-2-2

E ---------------------------------------
B ---------------------------------------
G ---------------------------------------
D ---------------------------------------
A -2-4--4-4-7-8-9-9-9-9-9-9-9-9-9-9-9-9-9
E -0-2--2-2-5-6-7-7-7-7-7-7-7-7-7-7-7-7-7

RIGHT, THIS IS THE CHORUS:-
E ------------------------         E ------------
B ------------------------         B ------------
G ------------------------         G ------------
D -------------------4-6-4  X3     D 6-6-6-6-7---
A -------------4---0-2-4-2         A 4-4-4-4-5---
E -0-2-4-5-4-0-2-4--------         E-------------

RIGHT,THE SOLO IS NEXT BUT I CAN'T BE BOTHERED TO DO IT NOW.I'LL TRY TO WRITE IN BOTH OF THE 
SOLOS LATER ON IN THE WEEK  HAVE FUN    1

Добавлено: 13.01.2014
Другие материалы по этой песне:
  • Аккорды и текст

Страница создана 13.01.2014
http://primanota.ru/darkness/a-thing-called-love-chords.htm
Привет, Гость.
Предлагаем пройти революционный курс по гитаре.
Подарок от PrimaNota.Ru, забирай!