PrimaNota.ru - самый крупный в мире бесплатный архив песенных текстов, аккордов, табулатур и нот


Darkest Hour - Deliver Us - текст песни, таба, видео

Регистрация Запомнить меня
Войти через:  Facebook Google Twitter Vk Yandex Mail.ru

Darkest Hour - Deliver Us - текст песни, таба, видео

Печатать
Просмотров: 178
----------------------------------------------------------------------------
                             DELIVER US - Darkest Hour
----------------------------------------------------------------------------

Tabbed by: brandon5pennies
Email: brandon.nickel@comcast.net

Tuning: CGCFAD

I've been working pretty hard on figuring out this awesome solo. Some parts I'm
not 100% sure about but I'm 90% sure that it's correct especially the sweeps.
This sounds best using your neck pickup. Please rate and comment!

D|---------13---------------13--13--------------------------10--------------|
A|-------15---15----------15--13--13--13-----13-----------11---11-----------|
F|-----14-------14------14----------12--12-10--10-9-----10-------10------10-|
C|---15-----------15--15------------------------------12-----------12--12---|
G|-17---------------17------------------------------13---------------13-----|
C|--------------------------------------------------------------------------|

D|---10-------------------------13---------------13--13---------------------|
A|-11-------------------------15---15----------15--13--13--13-----13--------|
F|------10-9-9h12p9-10+-----14-------14------14----------12--12-10--10-9----|
C|------------------------15-----------15--15-------------------------------|
G|----------------------17---------------17---------------------------------|
C|--------------------------------------------------------------------------|

D|---------10----------------10------------------------------13--------------|
A|-------11---11-----------11------------------------------15---15-----------|
F|-----10-------10-------10-----7-66-9-77-9-10-15-14-----14-------14------14-|
C|---12-----------12---12------------------------------15-----------15--15---|
G|-13---------------13-------------------------------17---------------17-----|
C|---------------------------------------------------------------------------|

D|---13---13---------------------------10----------------10-----------------|
A|-15---13--13--13-----13------------11---11-----------11-------------------|
F|------------12--12-10--10-9------10-------10-------10---------------------|
C|-------------------------------12-----------12---12-------------7-8-10----|
G|-----------------------------13---------------13----------5-7-8-----------|
C|--------------------------------------------------------------------------|

D|-----------------------------------6----------------6---6-----------------|
A|---------10-11-10----------------8---8------------8---8---8---8-----------|
F|-9-10-12----------12-10-9------7-------7--------7-----------7---7---7-----|
C|-----------------------------8-----------8----8-------------------8---8---|
G|--------------------------10---------------10--------------------------10-|
C|--------------------------------------------------------------------------|

D|---------3---------------3-----------------------------6----------------6---|
A|-------4---4-----------4-----------------------------8---8------------8----|
F|-----3-------3-------3----------------------7------7-------7--------7------|
C|---5-----------5---5------------------5-7-8------8-----------8----8---------|
G|-6---------------6----------5-44-7-55---------10---------------10-----------|
C|----------------------------------------------------------------------------|

D|---6----------------------13-17------------------------13-17----------------|
A|-8---8---8--------------15-----15--------------------15-----15--------------|
F|-------7---7-------10/14----------14\10---------10/14----------14\10--------|
C|----------------12---------------------12----12---------------------12------|
G|-------------12---------------------------12--------------------------12----|
C|----------------------------------------------------------------------------|

D|-----------13-17/22-17---------------------17-22---------13---------------|
A|---------15-----------18-----------------18------------15---15------------|
F|----10/14----------------19------------19------------14-------14------14--|
C|-12------------------------19--------19------------15-----------15--15----|
G|-----------------------------20-17-20------------17---------------17------|
C|--------------------------------------------------------------------------|

D|---13--13--------------------------10---------------10----------------------|
A|-15--13--13--13-----13-----------11---11----------11------------------------|
F|-----------12--12-10--10-9-----10-------10------10-----10-9-9h12p9-10-------|
C|-----------------------------12-----------12--12----------------------------|
G|---------------------------13---------------13------------------------------|
C|----------------------------------------------------------------------------|

D|---------13---------------13--13-----------------13-17/22-17--------------|
A|-------15---15----------15--13--13--13---------15-----------15------------|
F|-----14-------14------14----------12--12-----14---------------14----------|
C|---15-----------15--15---------------------15-------------------15--------|
G|-17---------------17---------------------17-----------------------17------|
C|--------------------------------------------------------------------------|

D|---------10---------------10------------------|
A|-------11---11----------11--------------------|
F|-----10-------10------10-----7-6-7-9-10-15-14-|
C|---12-----------12--12------------------------|
G|-13---------------13--------------------------|
C|----------------------------------------------|

| /  slide up
| \  slide down
| h  hammer-on
| p  pull-off
| ~  vibrato
| +  harmonic
| x  Mute note
=============================================================
Добавлено: 24.03.2012
Другие материалы по этой песне:

Страница создана 23.02.2012
http://primanota.ru/darkest-hour/deliver-us-chords.htm
Привет, Гость.
Предлагаем пройти революционный курс по гитаре.
Подарок от PrimaNota.Ru, забирай!