PrimaNota.ru - самый крупный в мире бесплатный архив песенных текстов, аккордов, табулатур и нот


Darkend - Light Of Night - таба, видео

Регистрация Запомнить меня
Войти через:  Facebook Google Twitter Vk Yandex Mail.ru

Darkend - Light Of Night - таба, видео

Печатать
Просмотров: 129
Уроки эстрадного вокала в Санкт-Петербурге
http://adarkend.weebly.com/index.html
Song: Light Of Night
Band: A Dark End
Album: To The Last Drop

Tabbed By Ryan Wakerell
Guitar 1 - Rhythm Guitar
Guitar 2 - Lead Guitar
Guitar 3 - Harmonized Lead Guitar

Intro
e|-1~------------------------------|---------------------------------|
B|-3~------------------------------|-3b------------------------------|
G|-2~------------------------------|-2b------------------------------|
D|-0~------------------------------|-0~------------------------------|
A|---------------------------------|---------------------------------|
D|---------------------------------|---------------------------------|

(Guitar 1)
e|-1~------------------------------|---------------------------------|
B|-3~------------------------------|-3b------------------------------|
G|-2~------------------------------|-2b------------------------------|
D|-0~------------------------------|-0~------------------------------|
A|---------------------------------|---------------------------------|
D|---------------------------------|---------------------------------|
(Guitar 2)
e|---------------------------------|---------------------------------|
B|---------------------------------|---------------------------------|
G|/7~------8--7--5-7p5h7~------/(8)|-8~------10-8--7-7h8p7\5~--------|
D|---------------------------------|---------------------------------|
A|---------------------------------|---------------------------------|
D|---------------------------------|---------------------------------|

(Guitar 1)
e|-1~------------------------------|---------------------------------|
B|-3~------------------------------|-3b------------------------------|
G|-2~------------------------------|-2b------------------------------|
D|-0~------------------------------|-0~------------------------------|
A|---------------------------------|---------------------------------|
D|---------------------------------|---------------------------------|
(Guitar 2)
e|---------------------------------|---------------------------------|
B|---------------------------------|---------------------------------|
G|/12~---13-12-10-12p10h12~---/(12)|-12b----/14b----/15b----/17b-----|
D|---------------------------------|---------------------------------|
A|---------------------------------|---------------------------------|
D|---------------------------------|---------------------------------|

Interlude
(Guitar 1)
e|---------------------------------|---------------------------------|
B|---------------------------------|---------------------------------|
G|-----------------5---5-5---5-5-5-|-3---3-3---3-3-3-2---2-2---2-2-2-|
D|-0---0-0---0-0-0-5---5-5---5-5-5-|-3---3-3---3-3-3-2---2-2---2-2-2-|
A|-0---0-0---0-0-0-3---3-3---3-3-3-|-1---1-1---1-1-1-0---0-0---0-0-0-|
D|-0---0-0---0-0-0-----------------|---------------------------------|
(Guitar 2)
e|---------------------------------|---------------------------------|
B|/15~-----------------------------|---------------------------------|
G|---------------------------------|---------------------------------|
D|---------------------------------|---------------------------------|
A|---------------------------------|---------------------------------|
D|---------------------------------|---------------------------------|


e|---------------------------------|---------------------------------|
B|---------------------------------|---------------------------------|
G|-----------------5---5-5---5-5-5-|-3---3-3---3-3-3-8---8-8---8-8-8-|
D|-0---0-0---0-0-0-5---5-5---5-5-5-|-3---3-3---3-3-3-8---8-8---8-8-8-|
A|-0---0-0---0-0-0-3---3-3---3-3-3-|-1---1-1---1-1-1-6---6-6---6-6-6-|
D|-0---0-0---0-0-0-----------------|---------------------------------|

e|---------------------------------|---------------------------------|
B|---------------------------------|---------------------------------|
G|-----------------5---5-5---5-5-5-|-3---3-3---3-3-3-2---2-2---2-2-2-|
D|-0---0-0---0-0-0-5---5-5---5-5-5-|-3---3-3---3-3-3-2---2-2---2-2-2-|
A|-0---0-0---0-0-0-3---3-3---3-3-3-|-1---1-1---1-1-1-0---0-0---0-0-0-|
D|-0---0-0---0-0-0-----------------|---------------------------------|

e|---------------------------------|---------------------------------|
B|---------------------------------|---------------------------------|
G|-----------------5---5-5---5-5-5-|-3---3-3---3-3-3-8---8-8---8-8-8-|
D|-0---0-0---0-0-0-5---5-5---5-5-5-|-3---3-3---3-3-3-8---8-8---8-8-8-|
A|-0---0-0---0-0-0-3---3-3---3-3-3-|-1---1-1---1-1-1-6---6-6---6-6-6-|
D|-0---0-0---0-0-0-----------------|---------------------------------|

Verse 1
e|---------------------------------|---------------------------------|
B|---------------------------------|---------------------------------|
G|-----------------5---5-5---5-5-5-|-3---3-3---3-3-3-2---2-2---2-2-2-|
D|-0---0-0---0-0-0-5---5-5---5-5-5-|-3---3-3---3-3-3-2---2-2---2-2-2-|
A|-0---0-0---0-0-0-3---3-3---3-3-3-|-1---1-1---1-1-1-0---0-0---0-0-0-|
D|-0---0-0---0-0-0-----------------|---------------------------------|
                                                                     rpt x2
e|---------------------------------|---------------------------------|
B|---------------------------------|---------------------------------|
G|-----------------5---5-5---5-5-5-|-3---3-3---3-3-3-8---8-8---8-8-8-|
D|-0---0-0---0-0-0-5---5-5---5-5-5-|-3---3-3---3-3-3-8---8-8---8-8-8-|
A|-0---0-0---0-0-0-3---3-3---3-3-3-|-1---1-1---1-1-1-6---6-6---6-6-6-|
D|-0---0-0---0-0-0-----------------|---------------------------------|

(Guitar 1)
e|-----------------------------------------|-----------------------------------------|
B|-----------------------------------------|-----------------------------------------|
G|----------------------5---5--5---5--5--5-|--3---3--3---3--3--3--2---2--2---2--2--2-|
D|--0---0--0---0--0--0--5---5--5---5--5--5-|--3---3--3---3--3--3--2---2--2---2--2--2-|
A|--0---0--0---0--0--0--3---3--3---3--3--3-|--1---1--1---1--1--1--0---0--0---0--0--0-|
D|--0---0--0---0--0--0---------------------|-----------------------------------------|
(Guitar 2)
e|-----------------------------------------|-----------------------------------------|
B|-----------------------------------------|-----------------------------------------|
G|--------------------------------12-15-14-|-----------------------------------------|
D|-12--14-15--14-12-14-12--14-15-----------|-12--14-15--14-12-14-12--14-15--14-------|
A|-----------------------------------------|-----------------------------------15~---|
D|-----------------------------------------|-----------------------------------------|
(Guitar 3)
e|-----------------------------------------|-----------------------------------------|
B|-----------------------------------------|-----------------------------------------|
G|--------------------------------15-19-17-|-----------------------------------------|
D|-15--17-19--17-15-17-15--17-19-----------|-15--17-19--17-15-17-15--17-19--17-14~---|
A|-----------------------------------------|-----------------------------------------|
D|-----------------------------------------|-----------------------------------------|

(Guitar 1)
e|-----------------------------------------|-----------------------------------------|
B|-----------------------------------------|-----------------------------------------|
G|----------------------5---5--5---5--5--5-|--3---3--3---3--3--3---8~----------------|
D|--0---0--0---0--0--0--5---5--5---5--5--5-|--3---3--3---3--3--3---8~----------------|
A|--0---0--0---0--0--0--3---3--3---3--3--3-|--1---1--1---1--1--1---6~----------------|
D|--0---0--0---0--0--0---------------------|-----------------------------------------|
(Guitar 2)
e|-----------------------------------------|-----------------------------------------|
B|-----------------------------------------|-----------------------------------------|
G|--------------------------------12-15-14-|-----------------------------------------|
D|-12--14-15--14-12-14-12--14-15-----------|-12--14-15--14-12h14p12------------------|
A|-----------------------------------------|-----------------------15~------15~------|
D|-----------------------------------------|-----------------------------------------|
(Guitar 3)
e|-----------------------------------------|-----------------------------------------|
B|-----------------------------------------|-----------------------------------------|
G|--------------------------------15-19-17-|-----------------------------------------|
D|-15--17-19--17-15-17-15--17-19-----------|-15--17-19--17-15h17p15------------------|
A|-----------------------------------------|-----------------------17~------17~------|
D|-----------------------------------------|-----------------------------------------|

Pre-Chorus
e|---------------------------------|---------------------------------|
B|---------------------------------|---------------------------------|
G|-----------------5---5-5---5-5-5-|---------------------------------|
D|-0---0-0---0-0-0-5---5-5---5-5-5-|-3---3-3---3-3-3-3-3-3-3-3-3-3-3-|
A|-0---0-0---0-0-0-3---3-3---3-3-3-|-3---3-3---3-3-3-3-3-3-3-3-3-3-3-|
D|-0---0-0---0-0-0-----------------|-3---3-3---3-3-3-3-3-3-3-3-3-3-3-|

Chorus 1
e|---------------------------------|---------------------------------|
B|---------------------------------|---------------------------------|
G|---------------------------------|---------------------------------|
D|-0-0-0-0-0-0-0-0-0-0-0-0-0-0-0-0-|-0-0-0-0-0-0-0-0-0-0-0-0-0-0-0-0-|
A|-0-0-0-0-0-0-0-0-0-0-0-0-0-0-0-0-|-0-0-0-0-0-0-0-0-0-0-0-0-0-0-0-0-|
D|-0-0-0-0-0-0-0-0-0-0-0-0-0-0-0-0-|-0-0-0-0-0-0-0-0-0-0-0-0-0-0-0-0-|

e|---------------------------------|---------------------------------|
B|---------------------------------|---------------------------------|
G|---------------------------------|---------------------------------|
D|-1-1-1-1-1-1-1-1-1-1-1-1-1-1-1-1-|-1-1-1-1-1-1-1-1-1-1-1-1-1-1-1-1-|
A|-1-1-1-1-1-1-1-1-1-1-1-1-1-1-1-1-|-1-1-1-1-1-1-1-1-1-1-1-1-1-1-1-1-|
D|-1-1-1-1-1-1-1-1-1-1-1-1-1-1-1-1-|-1-1-1-1-1-1-1-1-1-1-1-1-1-1-1-1-|

e|---------------------------------|---------------------------------|
B|---------------------------------|---------------------------------|
G|---------------------------------|---------------------------------|
D|-0-0-0-0-0-0-0-0-0-0-0-0-0-0-0-0-|-0-0-0-0-0-0-0-0-0-0-0-0-0-0-0-0-|
A|-0-0-0-0-0-0-0-0-0-0-0-0-0-0-0-0-|-0-0-0-0-0-0-0-0-0-0-0-0-0-0-0-0-|
D|-0-0-0-0-0-0-0-0-0-0-0-0-0-0-0-0-|-0-0-0-0-0-0-0-0-0-0-0-0-0-0-0-0-|

e|---------------------------------|---------------------------------|
B|---------------------------------|---------------------------------|
G|---------------------------------|---------------------------------|
D|-1-1-1-1-1-1-1-1-1-1-1-1-1-1-1-1-|-1~------------------------------|
A|-1-1-1-1-1-1-1-1-1-1-1-1-1-1-1-1-|-1~------------------------------|
D|-1-1-1-1-1-1-1-1-1-1-1-1-1-1-1-1-|-1~----------------(pick slide)\-|

Verse 2
e|---------------------------------|---------------------------------|
B|---------------------------------|---------------------------------|
G|-----------------5---5-5---5-5-5-|-3---3-3---3-3-3-2---2-2---2-2-2-|
D|-0---0-0---0-0-0-5---5-5---5-5-5-|-3---3-3---3-3-3-2---2-2---2-2-2-|
A|-0---0-0---0-0-0-3---3-3---3-3-3-|-1---1-1---1-1-1-0---0-0---0-0-0-|
D|-0---0-0---0-0-0-----------------|---------------------------------|
                                                                     rpt x2
e|---------------------------------|---------------------------------|
B|---------------------------------|---------------------------------|
G|-----------------5---5-5---5-5-5-|-3---3-3---3-3-3-8---8-8---8-8-8-|
D|-0---0-0---0-0-0-5---5-5---5-5-5-|-3---3-3---3-3-3-8---8-8---8-8-8-|
A|-0---0-0---0-0-0-3---3-3---3-3-3-|-1---1-1---1-1-1-6---6-6---6-6-6-|
D|-0---0-0---0-0-0-----------------|---------------------------------|

(Guitar 1)
e|-----------------------------------------|-----------------------------------------|
B|-----------------------------------------|-----------------------------------------|
G|----------------------5---5--5---5--5--5-|--3---3--3---3--3--3--2---2--2---2--2--2-|
D|--0---0--0---0--0--0--5---5--5---5--5--5-|--3---3--3---3--3--3--2---2--2---2--2--2-|
A|--0---0--0---0--0--0--3---3--3---3--3--3-|--1---1--1---1--1--1--0---0--0---0--0--0-|
D|--0---0--0---0--0--0---------------------|-----------------------------------------|
(Guitar 2)
e|-----------------------------------------|-----------------------------------------|
B|-----------------------------------------|-----------------------------------------|
G|--------------------------------12-15-14-|-----------------------------------------|
D|-12--14-15--14-12-14-12--14-15-----------|-12--14-15--14-12-14-12--14-15--14-------|
A|-----------------------------------------|-----------------------------------15~---|
D|-----------------------------------------|-----------------------------------------|
(Guitar 3)
e|-----------------------------------------|-----------------------------------------|
B|-----------------------------------------|-----------------------------------------|
G|--------------------------------15-19-17-|-----------------------------------------|
D|-15--17-19--17-15-17-15--17-19-----------|-15--17-19--17-15-17-15--17-19--17-14~---|
A|-----------------------------------------|-----------------------------------------|
D|-----------------------------------------|-----------------------------------------|

(Guitar 1)
e|-----------------------------------------|-----------------------------------------|
B|-----------------------------------------|-----------------------------------------|
G|----------------------5---5--5---5--5--5-|--3---3--3---3--3--3---8~-------8~-------|
D|--0---0--0---0--0--0--5---5--5---5--5--5-|--3---3--3---3--3--3---8~-------8~-------|
A|--0---0--0---0--0--0--3---3--3---3--3--3-|--1---1--1---1--1--1---6~-------6~-------|
D|--0---0--0---0--0--0---------------------|-----------------------------------------|
(Guitar 2)
e|-----------------------------------------|-----------------------------------------|
B|-----------------------------------------|-----------------------------------------|
G|--------------------------------12-15-14-|-----------------------------------------|
D|-12--14-15--14-12-14-12--14-15-----------|-12--14-15--14-12h14p12------------------|
A|-----------------------------------------|-----------------------15~------15~------|
D|-----------------------------------------|-----------------------------------------|
(Guitar 3)
e|-----------------------------------------|-----------------------------------------|
B|-----------------------------------------|-----------------------------------------|
G|--------------------------------15-19-17-|-----------------------------------------|
D|-15--17-19--17-15-17-15--17-19-----------|-15--17-19--17-15h17p15------------------|
A|-----------------------------------------|-----------------------17~------17~------|
D|-----------------------------------------|-----------------------------------------|

(Guitar 1)
e|-----------------------------------------|-----------------------------------------|
B|-----------------------------------------|-----------------------------------------|
G|----------------------5---5--5---5--5--5-|--3---3--3---3--3--3--2---2--2---2--2--2-|
D|--0---0--0---0--0--0--5---5--5---5--5--5-|--3---3--3---3--3--3--2---2--2---2--2--2-|
A|--0---0--0---0--0--0--3---3--3---3--3--3-|--1---1--1---1--1--1--0---0--0---0--0--0-|
D|--0---0--0---0--0--0---------------------|-----------------------------------------|
(Guitar 2)
e|-----------------------------------------|-----------------------------------------|
B|-----------------------------------------|-----------------------------------------|
G|--------------------------------12-15-14-|-----------------------------------------|
D|-12--14-15--14-12-14-12--14-15-----------|-12--14-15--14-12-14-12--14-15--14-------|
A|-----------------------------------------|-----------------------------------15~---|
D|-----------------------------------------|-----------------------------------------|
(Guitar 3)
e|-----------------------------------------|-----------------------------------------|
B|-----------------------------------------|-----------------------------------------|
G|--------------------------------15-19-17-|-----------------------------------------|
D|-15--17-19--17-15-17-15--17-19-----------|-15--17-19--17-15-17-15--17-19--17-14~---|
A|-----------------------------------------|-----------------------------------------|
D|-----------------------------------------|-----------------------------------------|

(Guitar 1)
e|-----------------------------------------|-----------------------------------------|
B|-----------------------------------------|-----------------------------------------|
G|----------------------5---5--5---5--5--5-|--3---3--3---3--3--3--8~-----------------|
D|--0---0--0---0--0--0--5---5--5---5--5--5-|--3---3--3---3--3--3--8~-----------------|
A|--0---0--0---0--0--0--3---3--3---3--3--3-|--1---1--1---1--1--1--6~-----------------|
D|--0---0--0---0--0--0---------------------|-----------------------------------------|
(Guitar 2)
e|-----------------------------------------|-----------------------------------------|
B|-----------------------------------------|------------------13-15b-----------------|
G|--------------------------------12-14-15-|-15--14-15--14-15------------------------|
D|-12--14-15--14-12-14-12--14-15-----------|-----------------------------------------|
A|-----------------------------------------|-----------------------------------------|
D|-----------------------------------------|-----------------------------------------|
(Guitar 3)
e|-----------------------------------------|-----------------------------------------|
B|-----------------------------------------|------------------17-18b-----------------|
G|--------------------------------15-17-19-|-19--17-19--17-19------------------------|
D|-15--17-19--17-15-17-15--17-19-----------|-----------------------------------------|
A|-----------------------------------------|-----------------------------------------|
D|-----------------------------------------|-----------------------------------------|

Chorus 2
e|---------------------------------|---------------------------------|
B|---------------------------------|---------------------------------|
G|---------------------------------|---------------------------------|
D|-0-0-0-0-0-0-0-0-0-0-0-0-0-0-0-0-|-0-0-0-0-0-0-0-0-0-0-0-0-0-0-0-0-|
A|-0-0-0-0-0-0-0-0-0-0-0-0-0-0-0-0-|-0-0-0-0-0-0-0-0-0-0-0-0-0-0-0-0-|
D|-0-0-0-0-0-0-0-0-0-0-0-0-0-0-0-0-|-0-0-0-0-0-0-0-0-0-0-0-0-0-0-0-0-|

e|---------------------------------|---------------------------------|
B|---------------------------------|---------------------------------|
G|---------------------------------|---------------------------------|
D|-1-1-1-1-1-1-1-1-1-1-1-1-1-1-1-1-|-1-1-1-1-1-1-1-1-1-1-1-1-1-1-1-1-|
A|-1-1-1-1-1-1-1-1-1-1-1-1-1-1-1-1-|-1-1-1-1-1-1-1-1-1-1-1-1-1-1-1-1-|
D|-1-1-1-1-1-1-1-1-1-1-1-1-1-1-1-1-|-1-1-1-1-1-1-1-1-1-1-1-1-1-1-1-1-|

e|---------------------------------|---------------------------------|
B|---------------------------------|---------------------------------|
G|---------------------------------|---------------------------------|
D|-0-0-0---0-0---0---0-3---5---6---|-0-0-0---0-0---0---0-3---5---6---|
A|-0-0-0---0-0---0---0-3---5---6---|-0-0-0---0-0---0---0-3---5---6---|
D|-0-0-0---0-0---0---0-3---5---6---|-0-0-0---0-0---0---0-3---5---6---|\
                                                                     rpt x2
e|---------------------------------|---------------------------------|/
B|---------------------------------|---------------------------------|
G|---------------------------------|---------------------------------|
D|-1-1-1---1-1---1---1-3---4---5---|-1-1-1---1-1---1---1-3---4---3---|
A|-1-1-1---1-1---1---1-3---4---5---|-1-1-1---1-1---1---1-3---4---3---|
D|-1-1-1---1-1---1---1-3---4---5---|-1-1-1---1-1---1---1-3---4---3---|

Main Solo
(Guitar 1)
e|---------------------------------|---------------------------------|
B|---------------------------------|---------------------------------|
G|---------------------------------|---------------------------------|
D|-0~------------------------------|(0)------------------------------|
A|-0~------------------------------|(0)------------------------------|
D|-0~------------------------------|(0)------------------------------|
(Guitar 2)
e|---------------------------------|---------------------------------|
B|---------------------------------|---------------------------------|
G|/7-------7-----7---8p7p5-7p5-----|---------------------------------|
D|-----------------------------7p5-|-7-----7p5h7---7p5h7---7---7~----|
A|---------------------------------|---------------------------------|
D|---------------------------------|---------------------------------|

(Guitar 1)
e|---------------------------------|---------------------------------|
B|---------------------------------|---------------------------------|
G|---------------------------------|---------------------------------|
D|-1~------------------------------|(1)------------------------------|
A|-1~------------------------------|(1)------------------------------|
D|-1~------------------------------|(1)------------------------------|
(Guitar 2)
e|---------------------------------|---------------------------------|
B|---------------------------------|---------------------------------|
G|---------------------------------|---------------------------------|
D|-----5-7-8-7-5-7-----7p5h7---7---|-----5-7-8-7-5-7~----7p5h7~------|
A|-5-6-----------------------------|-5-6-----------------------------|
D|---------------------------------|---------------------------------|

(Guitar 1)
e|-----------------------------------------|-----------------------------------------|
B|-----------------------------------------|-----------------------------------------|
G|-----------------------------------------|-----------------------------------------|
D|-0~--------------------------------------|-----------------------------------------|
A|-0~--------------------------------------|-----------------------------------------|
D|-0~--------------------------------------|-----------------------------------------|
(Guitar 2)
e|-10-----10-----10---11p10p8--------------|-11p10p8-------10p9p7--------------------|
B|----------------------------11p10p8h10~--|--------11p10p8------10p9p7--------------|
G|-----------------------------------------|---------------------------9h11-11~--11~-|
D|-----------------------------------------|-----------------------------------------|
A|-----------------------------------------|-----------------------------------------|
D|-----------------------------------------|-----------------------------------------|

(Guitar 1)
e|-------------------------------------------------------------------------|
B|-------------------------------------------------------------------------|
G|-------------------------------------------------------------------------|
D|-1~----------------------------------------------------------------------|
A|-1~----------------------------------------------------------------------|
D|-1~----------------------------------------------------------------------|
(Guitar 2)
e|-15p14p12----------15p14p12----------15p14p12----------15p14p12----------|
B|----------15p14p12----------15p14p12----------15p14p12----------15p14p12-|
G|-------------------------------------------------------------------------|
D|-------------------------------------------------------------------------|
A|-------------------------------------------------------------------------|
D|-------------------------------------------------------------------------|

(Guitar 1)
e|-------------------------------------------------------------------------|
B|-------------------------------------------------------------------------|
G|-------------------------------------------------------------------------|
D|(1)----------------------------------------------------------------------|
A|(1)----------------------------------------------------------------------|
D|(1)----------------------------------------------------------------------|
(Guitar 2)
e|-15p14p12-17p15p12-15p14p12----------15p14p12-17p15p12-15p14p12----------|
B|----------------------------15p14p12----------------------------15p14p12-|
G|-------------------------------------------------------------------------|
D|-------------------------------------------------------------------------|
A|-------------------------------------------------------------------------|
D|-------------------------------------------------------------------------|

(Guitar 1)
e|---------------------------------|---------------------------------|
B|---------------------------------|---------------------------------|
G|---------------------------------|---------------------------------|
D|-0~------------------------------|(0)------------------------------|
A|-0~------------------------------|(0)------------------------------|
D|-0~------------------------------|(0)------------------------------|
(Guitar 2)
e|-17------17----17----15p13h15----|-17-----15-----13------11---10---|
B|---------------------------------|---------------------------------|
G|---------------------------------|---------------------------------|
D|---------------------------------|---------------------------------|
A|---------------------------------|---------------------------------|
D|---------------------------------|---------------------------------|

(Guitar 1)
e|---------------------------------|
B|---------------------------------|
G|---------------------------------|
D|-1~------------------------------|
A|-1~------------------------------|
D|-1~------------------------------|
(Guitar 2)
e|-11~-----11~---11~-----11~---11~-|
B|-14b-----14b---14b-----14b---14b-|
G|---------------------------------|
D|---------------------------------|
A|---------------------------------|
D|---------------------------------|

(Guitar 1)
e|----------------------------------------------------------------------------------------------|
B|----------------------------------------------------------------------------------------------|
G|----------------------------------------------------------------------------------------------|
D|(1)-------------------------------------------------------------------------------------------|
A|(1)-------------------------------------------------------------------------------------------|
D|(1)-------------------------------------------------------------------------------------------|
(Guitar 2)
e|13p11h13p11h13p11h13p11h13p11h13p11h13p11h13p11-----------------------------------------------|
B|-----------------------------------------------13p11h13p11h13p11h13p11h13p11h13p11h13p11h13p11|
G|----------------------------------------------------------------------------------------------|
D|----------------------------------------------------------------------------------------------|
A|----------------------------------------------------------------------------------------------|
D|----------------------------------------------------------------------------------------------|

(Guitar 1)
e|-----------------------------------------|-----------------------------------------|
B|-----------------------------------------|-----------------------------------------|
G|-----------------------------------------|-----------------------------------------|
D|-0~--------------------------------------|-----------------------------------------|
A|-0~--------------------------------------|-----------------------------------------|
D|-0~--------------------------------------|-----------------------------------------|
(Guitar 2)
e|-----------------------------------------|-----------------------------------------|
B|/15-------17--18--17-13-------15--17--15-|-12-------13--15--13-10~-----------------|
G|-----------------------------------------|-----------------------------------------|
D|-----------------------------------------|-----------------------------------------|
A|-----------------------------------------|-----------------------------------------|
D|-----------------------------------------|-----------------------------------------|
(Guitar 3)
e|-----------------------------------------|-----------------------------------------|
B|-----------------------------------------|-----------------------------------------|
G|-----------------------------------------|-----------------------------------------|
D|/15-------17--19--17-14-------15--17--15-|-12-------14--15--14-10~-----------------|
A|-----------------------------------------|-----------------------------------------|
D|-----------------------------------------|-----------------------------------------|

Interlude
(Guitar 1)
e|---------------------------------|---------------------------------|
B|---------------------------------|---------------------------------|
G|-----------------5---5-5---5-5-5-|-3---3-3---3-3-3-2---2-2---2-2-2-|
D|-0---0-0---0-0-0-5---5-5---5-5-5-|-3---3-3---3-3-3-2---2-2---2-2-2-|
A|-0---0-0---0-0-0-3---3-3---3-3-3-|-1---1-1---1-1-1-0---0-0---0-0-0-|
D|-0---0-0---0-0-0-----------------|---------------------------------|
(Guitar 2)
e|---------------------------------|---------------------------------|
B|(10)-----------------------------|---------------------------------|
G|---------------------------------|---------------------------------|
D|---------------------------------|---------------------------------|
A|---------------------------------|---------------------------------|
D|---------------------------------|---------------------------------|
(Guitar 3)
e|---------------------------------|---------------------------------|
B|---------------------------------|---------------------------------|
G|---------------------------------|---------------------------------|
D|(10)-----------------------------|---------------------------------|
A|---------------------------------|---------------------------------|
D|---------------------------------|---------------------------------|


e|---------------------------------|---------------------------------|
B|---------------------------------|---------------------------------|
G|-----------------5---5-5---5-5-5-|-3---3-3---3-3-3-8---8-8---8-8-8-|
D|-0---0-0---0-0-0-5---5-5---5-5-5-|-3---3-3---3-3-3-8---8-8---8-8-8-|
A|-0---0-0---0-0-0-3---3-3---3-3-3-|-1---1-1---1-1-1-6---6-6---6-6-6-|
D|-0---0-0---0-0-0-----------------|---------------------------------|

Verse 3
e|---------------------------------|---------------------------------|
B|---------------------------------|---------------------------------|
G|-----------------5---5-5---5-5-5-|-3---3-3---3-3-3-2---2-2---2-2-2-|
D|-0---0-0---0-0-0-5---5-5---5-5-5-|-3---3-3---3-3-3-2---2-2---2-2-2-|
A|-0---0-0---0-0-0-3---3-3---3-3-3-|-1---1-1---1-1-1-0---0-0---0-0-0-|
D|-0---0-0---0-0-0-----------------|---------------------------------|

e|---------------------------------|---------------------------------|
B|---------------------------------|---------------------------------|
G|-----------------5---5-5---5-5-5-|-3---3-3---3-3-3-8---8-8---8-8-8-|
D|-0---0-0---0-0-0-5---5-5---5-5-5-|-3---3-3---3-3-3-8---8-8---8-8-8-|
A|-0---0-0---0-0-0-3---3-3---3-3-3-|-1---1-1---1-1-1-6---6-6---6-6-6-|
D|-0---0-0---0-0-0-----------------|---------------------------------|

e|---------------------------------|---------------------------------|
B|---------------------------------|---------------------------------|
G|-----------------7---7-7---7-7-7-|-5---5-5---5-5-5-4---4-4---4-4-4-|
D|-2---2-2---2-2-2-7---7-7---7-7-7-|-5---5-5---5-5-5-4---4-4---4-4-4-|
A|-2---2-2---2-2-2-5---5-5---5-5-5-|-3---3-3---3-3-3-2---2-2---2-2-2-|
D|-2---2-2---2-2-2-----------------|---------------------------------|\
                                                                     rpt x2
e|---------------------------------|---------------------------------|/
B|---------------------------------|---------------------------------|
G|-----------------7---7-7---7-7-7-|-5---5-5---5-5-5-10--1010--101010|
D|-2---2-2---2-2-2-7---7-7---7-7-7-|-5---5-5---5-5-5-10--1010--101010|
A|-2---2-2---2-2-2-5---5-5---5-5-5-|-3---3-3---3-3-3-8---8-8---8-8-8-|
D|-2---2-2---2-2-2-----------------|---------------------------------|

(Guitar 1)
e|-----------------------------------------|-----------------------------------------|
B|-----------------------------------------|-----------------------------------------|
G|----------------------7---7--7---7--7--7-|--5---5--5---5--5--5--4---4--4---4--4--4-|
D|--2---2--2---2--2--2--7---7--7---7--7--7-|--5---5--5---5--5--5--4---4--4---4--4--4-|
A|--2---2--2---2--2--2--5---5--5---5--5--5-|--3---3--3---3--3--3--2---2--2---2--2--2-|
D|--2---2--2---2--2--2---------------------|-----------------------------------------|
(Guitar 2)
e|-----------------------------------------|-----------------------------------------|
B|-----------------------------------------|-----------------------------------------|
G|--------------------------------14-17-16-|-----------------------------------------|
D|-14--16-17--16-14-16-14--16-17-----------|-14--16-17--16-14-16-14--16-17--16-------|
A|-----------------------------------------|-----------------------------------17~---|
D|-----------------------------------------|-----------------------------------------|
(Guitar 3)
e|-----------------------------------------|-----------------------------------------|
B|-----------------------------------------|-----------------------------------------|
G|--------------------------------17-21-19-|-----------------------------------------|
D|-17--19-21--19-17-19-17--19-21-----------|-17--19-21--19-17-19-17--19-21--19-16~---|
A|-----------------------------------------|-----------------------------------------|
D|-----------------------------------------|-----------------------------------------|

(Guitar 1)
e|-----------------------------------------|-----------------------------------------|
B|-----------------------------------------|-----------------------------------------|
G|----------------------7---7--7---7--7--7-|--5---5--5---5--5--5--10--10-10--10-10-10|
D|--2---2--2---2--2--2--7---7--7---7--7--7-|--5---5--5---5--5--5--10--10-10--10-10-10|
A|--2---2--2---2--2--2--5---5--5---5--5--5-|--3---3--3---3--3--3--8---8--8---8--8--8-|
D|--2---2--2---2--2--2---------------------|-----------------------------------------|
(Guitar 2)
e|-----------------------------------------|-----------------------------------------|
B|-----------------------------------------|-----------------------------------------|
G|--------------------------------14-17-16-|--------------------------------14-16-17-|
D|-14--16-17--16-14-16-14--16-17-----------|-14--16-17--16-14-16-14--16-17-----------|
A|-----------------------------------------|-----------------------------------------|
D|-----------------------------------------|-----------------------------------------|
(Guitar 3)
e|-----------------------------------------|-----------------------------------------|
B|-----------------------------------------|-----------------------------------------|
G|--------------------------------17-21-19-|--------------------------------17-19-17-|
D|-17--19-21--19-17-19-17--19-21-----------|-17--19-21--19-17-19-17--19-21-----------|
A|-----------------------------------------|-----------------------------------------|
D|-----------------------------------------|-----------------------------------------|

(Guitar 1)
e|-----------------------------------------|-----------------------------------------|
B|-----------------------------------------|-----------------------------------------|
G|----------------------7---7--7---7--7--7-|--5---5--5---5--5--5--4---4--4---4--4--4-|
D|--2---2--2---2--2--2--7---7--7---7--7--7-|--5---5--5---5--5--5--4---4--4---4--4--4-|
A|--2---2--2---2--2--2--5---5--5---5--5--5-|--3---3--3---3--3--3--2---2--2---2--2--2-|
D|--2---2--2---2--2--2---------------------|-----------------------------------------|
(Guitar 2)
e|--------------------------------17-20-19-|-----------------------------------------|
B|-17--19-20--19-17-19-17--19-20-----------|-17--19-20--19-17-19-17--19-20--19-15~---|
G|-----------------------------------------|-----------------------------------------|
D|-----------------------------------------|-----------------------------------------|
A|-----------------------------------------|-----------------------------------------|
D|-----------------------------------------|-----------------------------------------|
(Guitar 3)
e|-----------------------------------------|-----------------------------------------|
B|-----------------------------------------|-----------------------------------------|
G|--------------------------------17-21-19-|-----------------------------------------|
D|-17--19-21--19-17-19-17--19-21-----------|-17--19-21--19-17-19-17--19-21--19-16~---|
A|-----------------------------------------|-----------------------------------------|
D|-----------------------------------------|-----------------------------------------|

(Guitar 1)
e|-------------------------------------------|
B|-------------------------------------------|
G|----------------------7---7--7---7--7--7---|
D|--2---2--2---2--2--2--7---7--7---7--7--7---|
A|--2---2--2---2--2--2--5---5--5---5--5--5---|
D|--2---2--2---2--2--2-----------------------|
(Guitar 2)
e|--------------------------------17-20p19p17|
B|-17--19-20--19-17-19-17--19-20-------------|
G|-------------------------------------------|
D|-------------------------------------------|
A|-------------------------------------------|
D|-------------------------------------------|
(Guitar 3)
e|-------------------------------------------|
B|-------------------------------------------|
G|---------------------------------17-21-19--|
D|-17--19-21--19-17-19-17--19-21-------------|
A|-------------------------------------------|
D|-------------------------------------------|

Chorus 2
(Guitar 1)
e|---------------------------------|---------------------------------|
B|---------------------------------|---------------------------------|
G|---------------------------------|---------------------------------|
D|-0-0-0-0-0-0-0-0-0-0-0-0-0-0-0-0-|-0-0-0-0-0-0-0-0-0-0-0-0-0-0-0-0-|
A|-0-0-0-0-0-0-0-0-0-0-0-0-0-0-0-0-|-0-0-0-0-0-0-0-0-0-0-0-0-0-0-0-0-|
D|-0-0-0-0-0-0-0-0-0-0-0-0-0-0-0-0-|-0-0-0-0-0-0-0-0-0-0-0-0-0-0-0-0-|
(Guitar 2)
e|---------------------------------|---------------------------------|
B|-17~-----------------------------|(17)-----------------------------|
G|---------------------------------|---------------------------------|
D|---------------------------------|---------------------------------|
A|---------------------------------|---------------------------------|
D|---------------------------------|---------------------------------|
(Guitar 3)
e|---------------------------------|---------------------------------|
B|---------------------------------|---------------------------------|
G|---------------------------------|---------------------------------|
D|-17------------------------------|(17)-----------------------------|
A|---------------------------------|---------------------------------|
D|---------------------------------|---------------------------------|


e|---------------------------------|---------------------------------|
B|---------------------------------|---------------------------------|
G|---------------------------------|---------------------------------|
D|-1-1-1-1-1-1-1-1-1-1-1-1-1-1-1-1-|-1-1-1-1-1-1-1-1-1-1-1-1-1-1-1-1-|
A|-1-1-1-1-1-1-1-1-1-1-1-1-1-1-1-1-|-1-1-1-1-1-1-1-1-1-1-1-1-1-1-1-1-|
D|-1-1-1-1-1-1-1-1-1-1-1-1-1-1-1-1-|-1-1-1-1-1-1-1-1-1-1-1-1-1-1-1-1-|

e|---------------------------------|---------------------------------|
B|---------------------------------|---------------------------------|
G|---------------------------------|---------------------------------|
D|-0-0-0---0-0---0---0-3---5---6---|-0-0-0---0-0---0---0-3---5---6---|
A|-0-0-0---0-0---0---0-3---5---6---|-0-0-0---0-0---0---0-3---5---6---|
D|-0-0-0---0-0---0---0-3---5---6---|-0-0-0---0-0---0---0-3---5---6---|\
                                                                     rpt x2
e|---------------------------------|---------------------------------|/
B|---------------------------------|---------------------------------|
G|---------------------------------|---------------------------------|
D|-1-1-1---1-1---1---1-3---4---5---|-1-1-1---1-1---1---1-3---4---3---|
A|-1-1-1---1-1---1---1-3---4---5---|-1-1-1---1-1---1---1-3---4---3---|
D|-1-1-1---1-1---1---1-3---4---5---|-1-1-1---1-1---1---1-3---4---3---|

Bridge
e|---------------------------------|---------------------------------|
B|---------------------------------|---------------------------------|
G|---------------------------------|---------------------------------|rpt x2
D|-0~------0---2---3-5~------------|-0~------0---2---3-6~------------|
A|-0~------0---2---3-5~------------|-0~------0---2---3-6~------------|
D|-0~------0---2---3-5~------------|-0~------0---2---3-6~------------|

(Guitar 1)
e|---------------------------------|---------------------------------|
B|---------------------------------|---------------------------------|
G|---------------------------------|---------------------------------|
D|-0~------0---2---3-5~------------|-0~------0---2---3-6~------------|
A|-0~------0---2---3-5~------------|-0~------0---2---3-6~------------|
D|-0~------0---2---3-5~------------|-0~------0---2---3-6~------------|
(Guitar 2)
e|-------------------15~-----------|---------------------------------|
B|-15~-----15--17--18--------------|-15~-----15--17--18-13~----------|
G|---------------------------------|---------------------------------|
D|---------------------------------|---------------------------------|
A|---------------------------------|---------------------------------|
D|---------------------------------|---------------------------------|

(Guitar 1)
e|---------------------------------|---------------------------------|
B|---------------------------------|---------------------------------|
G|---------------------------------|---------------------------------|
D|-0~------0---2---3-5~------------|-0~------0---2---3-6~------------|
A|-0~------0---2---3-5~------------|-0~------0---2---3-6~------------|
D|-0~------0---2---3-5~------------|-0~------0---2---3-6~------------|
(Guitar 2)
e|-------------------15~-----------|---------------------------------|
B|-15~-----15--17--18--------------|-15~-----15--17--18-13~-13p11h13-|
G|---------------------------------|---------------------------------|
D|---------------------------------|---------------------------------|
A|---------------------------------|---------------------------------|
D|---------------------------------|---------------------------------|

(Guitar 1)
e|---------------------------------|---------------------------------|
B|---------------------------------|---------------------------------|
G|---------------------------------|---------------------------------|
D|-0~------0---2---3-5~------------|-0~------0---2---3-6~------------|
A|-0~------0---2---3-5~------------|-0~------0---2---3-6~------------|
D|-0~------0---2---3-5~------------|-0~------0---2---3-6~------------|
(Guitar 2)
e|-------------------18~-----------|---------------------------------|
B|-18~-----18--20--21--------------|-18~-----18--20--21-16~----------|
G|---------------------------------|---------------------------------|
D|---------------------------------|---------------------------------|
A|---------------------------------|---------------------------------|
D|---------------------------------|---------------------------------|

(Guitar 1)
e|-------------------------------------------------------------------|
B|-------------------------------------------------------------------|
G|-------------------------------------------------------------------|
D|-0~------0---2---3--6~-----------------5~-----------------0~-------|
A|-0~------0---2---3--6~-----------------5~-----------------0~-------|
D|-0~------0---2---3--6~-----------------5~-----------------0~-------|
(Guitar 2)
e|-------------------------------------------------------------------|
B|-18~-----18--20--21-16~-----16--18--19-15~-----15--17--18-13~------|
G|-------------------------------------------------------------------|
D|-------------------------------------------------------------------|
A|-------------------------------------------------------------------|
D|-------------------------------------------------------------------|

Outro
(Guitar 1)
e|---------------------------------|---------------------------------|
B|---------------------------------|---------------------------------|
G|-------7---------------7---------|-------5---------------3-------3-|
D|-----7-----7---7-----7-----7---7-|-----5-----5---5-----3-------3---|
A|---5---------5-----5---------5---|---3---------3-----1-------0-----|
E|-0---------------0---------------|-0---------------0-------0-------|
(Guitar 2)
e|---------------------------------|---------------------------------|
B|(13)-----------------------------|---------------------------------|
G|---------------------------------|---------------------------------|
D|---------------------------------|---------------------------------|
A|---------------------------------|---------------------------------|
D|---------------------------------|---------------------------------|


e|---------------------------------|---------------------------------|
B|---------------------------------|---------------------------------|
G|-------7---------------7---------|-------5---------------3-------3-|rpt x3
D|-----7-----7---7-----7-----7---7-|-----5-----5---5-----3-------3---|
A|---5---------5-----5---------5---|---3---------3-----1-------0-----|
E|-0---------------0---------------|-0---------------0-------0-------|

e|---------------------------------|---------------------------------|
B|---------------------------------|---------------------------------|
G|-------5---------------3-------3-|-------5---------------3-------3-|
D|-----5-----5---5-----3-------3---|-----5-----5---5-----3-------3---|
A|---3---------3-----1-------0-----|---3---------3-----1-------0-----|
E|-0---------------0-------0-------|-0---------------0-------0-------|

e|---------------------------------|
B|---------------------------------|
G|-------7~------------------------|
D|-----7---------------------------|
A|---5-----------------------------|
E|-0-------------------------------| End
Добавлено: 16.03.2012
Другие материалы по этой песне:
  • Аккорды и текст

Страница создана 16.03.2012
http://primanota.ru/darkend/light-of-night-chords.htm
Привет, Гость.
Предлагаем пройти революционный курс по гитаре.
Подарок от PrimaNota.Ru, забирай!