PrimaNota.ru - самый крупный в мире бесплатный архив песенных текстов, аккордов, табулатур и нот


Darkane - Vision Of Degradation - текст песни, таба, видео

Регистрация Запомнить меня
Войти через:  Facebook Google Twitter Vk Yandex Mail.ru

Darkane - Vision Of Degradation - текст песни, таба, видео

Печатать
Просмотров: 169
----------------------------------------------------------------------------
                   Vision Of Degradation - Darkane
                      Layers Of Lies - Album
----------------------------------------------------------------------------

Tabbed by: Swamplord
Email: brock_tomkins@hotmail.com

Tuning:BEADF#B

    b: bend
    r: release
    ~: vibrato
  (#): tie note
  ###: triplet
  |_|

Tempo - 110

Guitar 1
B:------------------------|------------------------|------------------------|
F#:-----------------------|------------------------|------------------------|
D:------------------------|------------------------|------------------------|
A:------------------------|------------------------|------------------------|
E:-------8-----------11---|-------8-----------8----|-------11---------------|
B:0-12-0------0-12-0------|0-12-0------0-12-0------|0-12-0------0-12-0-6----|
Guitar 2 enters
B:------------------------|------------------------|------------------------|
F#:-----------------------|------------------------|------------------------|
D:------------------------|------------------------|------------------------|
A:------------------------|------------------------|------------------------|
E:-------8-----------11---|-------8-----------8----|-------11---------------|
B:0-12-0------0-12-0------|0-12-0------0-12-0------|0-12-0------0-12-0-6----|



Both guitars play this twice, Drums enter
B:------------------------|------------------------|------------------------|
F#:-----------------------|------------------------|------------------------|
D:------------------------|------------------------|------------------------|
A:------------------------|------------------------|------------------------|
E:-------8-----------11---|-------8-----------8----|-------11---------------|
B:0-12-0------0-12-0------|0-12-0------0-12-0------|0-12-0------0-12-0-6----|



Guitar 1:
B:---14--14b~--14--15-14br12|------------------|----------------12-14-15/19~|
F#:11--11----11--11---------|----------1214-11-|(11)---12-11--13------------|
D:--------------------------|1211-9------------|------------12--------------|
A:--------------------------|------------------|----------------------------|
E:--------------------------|------------------|----------------------------|
B:--------------------------|------------------|----------------------------|
Guitar 2:
B:------------------------|---------------------|--------------------------|
F#:-----------------------|---------------------|--------------------------|
D:------------------------|---------------------|--------------------------|
A:------------------7-7-7-|7-7-7-----6-6--------|--------5-5-5-5-5-5-5---3-|
E:-------7-8-------7------|-----8-8-8--------7-8|--------3-3-3-3-3-3-3---3-|
B:--0-000-----0-000-------|-------------0-000---|-0-0-0-0-------------0-0--|
      |_|       |_|                       |_|


Guitar 1:
B:-18-19-21----22-21-19-|18-21--18-------------------------------|
F#:---------------------|-----20--17-20--17----------------------|
D:----------------------|--------------19--16-171516171920191716-|
A:----------------------|------------------------|___|-|___|-|_|-|
E:----------------------|----------------------------------------|
B:----------------------|----------------------------------------|
Guitar 2:
B:------------------------|-----------------------|
F#:-----------------------|-----------------------|
D:------------------------|-----------------------|
A:------------------7-7-7-|-7-7-7-----6-6---------|
E:-------7-8-------7------|------8-8-8--------7-8-|
B:--0-000-----0-000-------|--------------0-000----|
      |_|       |_|                        |_|


Guitar 1:  This last part of the solo was hard to tab
B:----------------------------|
F#:---------------------20~~~-|
D:-(16)--121011br-121315------|
A:----------------------------|
E:----------------------------|
B:----------------------------|
Guitar 2:
B:----------------------------|
F#:---------------------------|
D:----------------------------|
A:----------5-5-5-5-5-5-5---3-|
E:----------3-3-3-3-3-3-3---3-|
B:--0-0-0-0--------------0-0--|


Pre-Chorus
Guitars 1 & 2: Played twice                                  ...not right
B:---------------------|--------------------------|------------------------|
F#:--------------------|--------------------------|------------------------|
D:---------------------|--------------------------|------------------------|
A:---------------------|--------------------------|------------------------|
E:----------33---------|-----3-3----3-3---------33|3---555555---8-----5----|
B:-0--0--000--111-0--0-|-0-0-1-1----1-1-0--0--00--|-111-------5---5\3---3--|


Chorus 
Guitars 1 & 2: Played twice
B:------------------------|----------------------|--------------------------|
F#:-----------------------|----------------------|--------------------------|
D:------------------------|----------------------|--------------------------|
A:------------------7-7-7-|7-7-7-----6-6---------|--------5-5-5-5-5-5-5---3-|
E:-------7-8-------7------|-----8-8-8--------7-8-|--------3-3-3-3-3-3-3---3-|
B:--0-000-----0-000-------|-------------0-000----|-0-0-0-0-------------0-0--|
      |_|       |_|                       |_|
Добавлено: 21.04.2012
Другие материалы по этой песне:
  • Аккорды и текст

Страница создана 21.04.2012
http://primanota.ru/darkane/vision-of-degradation-chords.htm
Привет, Гость.
Предлагаем пройти революционный курс по гитаре.
Подарок от PrimaNota.Ru, забирай!