PrimaNota.ru - самый крупный в мире бесплатный архив песенных текстов, аккордов, табулатур и нот


Darkane - Fear Of Ones Self - текст песни, таба, видео

Регистрация Запомнить меня
Войти через:  Facebook Google Twitter Vk Yandex Mail.ru

Darkane - Fear Of Ones Self - текст песни, таба, видео

Печатать
Просмотров: 130
                              ..Wounded..

Band: Darkane
Song: The fear of one's self

This another great song by Darkane, the tab is 100% accurate so enjoy!

Riff A

		Guitar I
B ||---------------------|-------------------|------------------|------------------|
F#||---------------------|-------------------|------------------|------------------|
D ||*--------------------|-------------------|------------------|------------------|
A ||*--------------------|----------2--------|------------------|------------------|
E ||---3------------6----|----------2--------|------------------|------------------|
B ||---1------------4----|----------0--------|------------------|------------------|


                                                                                
|--------------------|-------------------|-------------------|------------------|
|--------------------|-------------------|-------------------|------------------|
|--------------------|-------------------|-------------------|------------------|
|--------------------|----------5--------|------4------------|------------------|
|--3------------6----|-------------------|-------------------|------------------|
|--1------------4----|----------3--------|------2------------|------------------|


                                                                               
|--------------------|-------------------|------------------|------------------|
|--------------------|-------------------|------------------|------------------|
|--------------------|-------------------|------------------|------------------|
|--------------------|----------2--------|------------------|------------------|
|--3------------6----|----------2--------|------------------|------------------|
|--1------------4----|----------0--------|------------------|------------------|


                                                                                  
|--------------------|-------------------|-------------------|--------------------|
|--------------------|-------------------|-------------------|----------x--x------|
|--------------------|----------9--------|------8------------|----------x--x------|
|--------------------|-------------------|-------------------|----------x--x------|
|--3------------6----|----------7--------|------6------------|--------------------|
|--1------------4----|-------------------|-------------------|--------------------|


		Guitar II
|---------------------|-------------------|------------------|------------------|
|---------------------|-------------------|------------------|------------------|
|*--------------------|-------------------|------------------|------------------|
|*--------------------|----------2--------|------------------|------------------|
|---3------------6----|----------2--------|------------------|------------------|
|---1------------4----|----------0--------|------------------|------------------|


                                                                                
|--------------------|-------------------|-------------------|------------------|
|--------------------|-------------------|-------------------|------------------|
|--------------------|-------------------|-------------------|------------------|
|--------------------|----------5--------|------4------------|------------------|
|--3------------6----|----------3--------|------2------------|------------------|
|--1------------4----|----------3--------|------2------------|------------------|


                                                                               
|--------------------|-------------------|------------------|------------------|
|--------------------|-------------------|------------------|------------------|
|--------------------|-------------------|------------------|------------------|
|--------------------|----------2--------|------------------|------------------|
|--3------------6----|----------2--------|------------------|------------------|
|--1------------4----|----------0--------|------------------|------------------|


                                                                                  
|--------------------|-------------------|-------------------|--------------------|
|--------------------|-------------------|-------------------|----------x--x------|
|--------------------|-------------------|-------------------|----------x--x------|
|--------------------|----------5--------|------4------------|----------x--x------|
|--3------------6----|----------3--------|------2------------|--------------------|
|--1------------4----|----------3--------|------2------------|--------------------|



Riff B
		Guitar I
|---------------------|-------------------|----------------------|----------------------|
|---------------------|-------------------|----------------------|----------------------|
|*--------------------|-------------------|----------------------|----------------------|
|*--------------------|----------2--------|------2---------------|----------------------|
|---3------------6----|----------2--------|------2----2--2--2----|--2----2----2----2----|
|---1------------4----|----------0--------|------0----0--0--0----|--0----0----0----0----|


                                                                                       
|--------------------|-------------------|-------------------|------------------------|
|--------------------|-------------------|-------------------|------------------------|
|--------------------|-------------------|-------------------|-----------------------*|
|--------------------|----------5--------|------4------------|--4--4--4----4----4----*|
|--3------------6----|----------3--------|------2------------|--2--2--2----2----2-----|
|--1------------4----|----------3--------|------2------------|--2--2--2----2----2-----|


		Guitar II
|---------------------|-------------------|----------------------|----------------------|
|---------------------|-------------------|----------------------|----------------------|
|*--------------------|-------------------|----------------------|----------------------|
|*--------------------|----------2--------|------2---------------|----------------------|
|---3------------6----|----------2--------|------2----2--2--2----|--2----2----2----2----|
|---1------------4----|----------0--------|------0----0--0--0----|--0----0----0----0----|


                                                                                       
|--------------------|-------------------|-------------------|------------------------|
|--------------------|-------------------|-------------------|------------------------|
|--------------------|-------------------|-------------------|-----------------------*|
|--------------------|----------5--------|------4------------|--4--4--4----4----4----*|
|--3------------6----|----------3--------|------2------------|--2--2--2----2----2-----|
|--1------------4----|----------3--------|------2------------|--2--2--2----2----2-----|



Riff C
		Guitar I
|-------------------|------------------|--------------------------|
|-------------------|------------------|--------------------------|
|-------------------|------------------|--------------------------|
|--2----------------|------------------|--------------------------|
|--2----------------|------------------|-----5-----8-----7-----8--|
|--0----------------|------------------|--0-----0-----0-----0-----|


                                                           
|------------------------------|---------------------------|
|------------------------------|---------------------------|
|------------------------------|---------------------------|
|------------------------------|---------------------------|
|--8-8-8-8-8--7--7-7-7-7-7--5--|-----5-----8-----7-----12--|
|--6-6-6-6-6--5--5-5-5-5-5--3--|--0-----0-----0-----0------|


                                                               
|-----------------------------------|--------------------------|
|-----------------------------------|--------------------------|
|-----------------------------------|--------------------------|
|-----------------------------------|--------------------------|
|-----11-----15-----14-15-17-15-14--|-----5-----8-----7-----8--|
|--0------0------0------------------|--0-----0-----0-----0-----|


                                                                  
|-------------------------------------|---------------------------|
|-------------------------------------|---------------------------|
|-------------------------------------|---------------------------|
|--9-9-9-9-9--10--10-10-10-10-10--13--|---------------------------|
|--7-7-7-7-7--8---8--8--8--8--8---11--|-----5-----8-----7-----12--|
|-------------------------------------|--0-----0-----0-----0------|


                                                               
|-----------------------------------|--------------------------|
|-----------------------------------|--------------------------|
|-----------------------------------|--------------------------|
|-----------------------------------|--------------------------|
|-----11-----15-----14-15-17-15-14--|-----5-----8-----7-----8--|
|--0------0------0------------------|--0-----0-----0-----0-----|


                                                           
|------------------------------|---------------------------|
|------------------------------|---------------------------|
|------------------------------|---------------------------|
|------------------------------|---------------------------|
|--8-8-8-8-8--7--7-7-7-7-7--5--|-----5-----8-----7-----12--|
|--6-6-6-6-6--5--5-5-5-5-5--3--|--0-----0-----0-----0------|


                                                               
|-----------------------------------|--------------------------|
|-----------------------------------|--------------------------|
|-----------------------------------|--------------------------|
|-----------------------------------|--------------------------|
|-----11-----15-----14-15-17-15-14--|-----5-----8-----7-----8--|
|--0------0------0------------------|--0-----0-----0-----0-----|


                                                                     
|-------------------------------------|
|-------------------------------------|
|-------------------------------------|
|--9-9-9-9-9--10--10-10-10-10-10--13--|
|--7-7-7-7-7--8---8--8--8--8--8---11--|
|-------------------------------------|



		Guitar II
|---------------------------|-----------------------------------|
|---------------------------|-----------------------------------|
|---------------------------|-----------------------------------|
|---------------------------|-----------------------------------|
|-----5-----8-----7-----12--|-----11-----15-----14-15-17-15-14--|
|--0-----0-----0-----0------|--0------0------0------------------|


                                                                                      
|--------------------------|------------------------------|---------------------------|
|--------------------------|------------------------------|---------------------------|
|--------------------------|------------------------------|---------------------------|
|--------------------------|------------------------------|---------------------------|
|-----5-----8-----7-----8--|--8-8-8-8-8--7--7-7-7-7-7--5--|-----5-----8-----7-----12--|
|--0-----0-----0-----0-----|--6-6-6-6-6--5--5-5-5-5-5--3--|--0-----0-----0-----0------|


                                                               
|-----------------------------------|--------------------------|
|-----------------------------------|--------------------------|
|-----------------------------------|--------------------------|
|-----------------------------------|--------------------------|
|-----11-----15-----14-15-17-15-14--|-----5-----8-----7-----8--|
|--0------0------0------------------|--0-----0-----0-----0-----|


                                                                  
|-------------------------------------|---------------------------|
|-------------------------------------|---------------------------|
|-------------------------------------|---------------------------|
|--9-9-9-9-9--10--10-10-10-10-10--13--|---------------------------|
|--7-7-7-7-7--8---8--8--8--8--8---11--|-----5-----8-----7-----12--|
|-------------------------------------|--0-----0-----0-----0------|


                                                               
|-----------------------------------|--------------------------|
|-----------------------------------|--------------------------|
|-----------------------------------|--------------------------|
|-----------------------------------|--------------------------|
|-----11-----15-----14-15-17-15-14--|-----5-----8-----7-----8--|
|--0------0------0------------------|--0-----0-----0-----0-----|


                                                           
|------------------------------|---------------------------|
|------------------------------|---------------------------|
|------------------------------|---------------------------|
|------------------------------|---------------------------|
|--8-8-8-8-8--7--7-7-7-7-7--5--|-----5-----8-----7-----12--|
|--6-6-6-6-6--5--5-5-5-5-5--3--|--0-----0-----0-----0------|


                                                               
|-----------------------------------|--------------------------|
|-----------------------------------|--------------------------|
|-----------------------------------|--------------------------|
|-----------------------------------|--------------------------|
|-----11-----15-----14-15-17-15-14--|-----5-----8-----7-----8--|
|--0------0------0------------------|--0-----0-----0-----0-----|


                                                                     
|-------------------------------------|
|-------------------------------------|
|-------------------------------------|
|--9-9-9-9-9--10--10-10-10-10-10--13--|
|--7-7-7-7-7--8---8--8--8--8--8---11--|
|-------------------------------------|



Riff D

		Guitar I & II
|-----------------------------|----------------------------|
|-----------------------------|----------------------------|
|*----------------------------|----------------------------|
|*----------------------------|----------------------------|
|-------------3---------3--4--|------------3---------0--2--|
|---2--2-2-2-----2-2-2--------|--2--2-2-2-----2-2-2--------|


                                                              
|----------------------------|-------------------------------|
|----------------------------|-------------------------------|
|----------------------------|------------------------------*|
|----------------------------|------------------------------*|Repeat
|------------3---------3--4--|-------------------------------|
|--2--2-2-2-----2-2-2--------|--1--1-1-1--1-1-1--1-1-1--1-1--|



Riff C (minus the first 2 bars)
Riff D


Riff E
		Guitar I & II
|---------------------------|--------------------------|
|---------------------------|--------------------------|
|*--------------------------|--------------------------|
|*-----------9--7--9--------|-----9--7--9--------------|
|------------7--5--7--------|-----7--5--7-----8--7--5--|
|---0--0--0-----------0--0--|--0-----------0--6--5--3--|


                                                                                     
|---------------------------|-----------------------------|--------------------------|
|---------------------------|-----------------------------|--------------------------|
|---------------------------|-----------------------------|--------------------------|
|-----------9--7--9---------|-----------------------------|-----------9--7--9--------|
|-----------7--5--7---------|-----------------------------|-----------7--5--7--------|
|--0--0--0-----------0--0-0-|--0--0--0-0-0--0-0-0--0-0-0--|--0--0--0-----------0--0--|


                                                                              
|--------------------------|---------------------------|---------------------|
|--------------------------|---------------------------|---------------------|
|--------------------------|---------------------------|--------------------*|
|-----9--7--9--------------|---------------------------|--2-----------------*|Repeat
|-----7--5--7-----8--7--5--|------------3--2--3--0--0--|--0--------3---------|
|--0-----------0--6--5--3--|--1--1-1-1-----------------|-----------1---------|




Riff F
		Guitar I
|----------------------------|---------------------|----------------------------|
|----------------------------|---------------------|----------------------------|
|----------------------------|---------------------|----------------------------|
|----------------------------|---------------------|----------------------------|
|--6--6--6--6----6-6-6-6-6-6-|--6--6--6------------|--6--6--6--6----6-6-6-6-6-6-|
|--4--4--4--4----4-4-4-4-4-4-|--4--4--4------------|--4--4--4--4----4-4-4-4-4-4-|


                                                                            
|------------------------|----------------------------|---------------------|
|------------------------|----------------------------|---------------------|
|------------------------|----------------------------|---------------------|
|--------7----------6----|----------------------------|---------------------|
|------------------------|--6--6--6--6----6-6-6-6-6-6-|--6--6--6------------|
|--5--5-------5--5-------|--4--4--4--4----4-4-4-4-4-4-|--4--4--4------------|


                                                                                   
|----------------------------|------------------------|----------------------------|
|----------------------------|------------------------|----------------------------|
|----------------------------|------------------------|----------------------------|
|----------------------------|--------7----------6----|----------------------------|
|--6--6--6--6----6-6-6-6-6-6-|------------------------|--8--8--8--8----8-8-8-8-8-8-|
|--4--4--4--4----4-4-4-4-4-4-|--5--5-------5--5-------|--6--6--6--6----6-6-6-6-6-6-|


                                                                            
|---------------------|----------------------------|------------------------|
|---------------------|----------------------------|------------------------|
|---------------------|----------------------------|------------------------|
|---------------------|----------------------------|--------9----------8----|
|--8--8--8------------|--8--8--8--8----8-8-8-8-8-8-|------------------------|
|--6--6--6------------|--6--6--6--6----6-6-6-6-6-6-|--7--7-------7--7-------|


                                                                                
|----------------------------|---------------------|----------------------------|
|----------------------------|---------------------|----------------------------|
|----------------------------|---------------------|----------------------------|
|----------------------------|---------------------|----------------------------|
|--8--8--8--8----8-8-8-8-8-8-|--8--8--8------------|--8--8--8--8----8-8-8-8-8-8-|
|--6--6--6--6----6-6-6-6-6-6-|--6--6--6------------|--6--6--6--6----6-6-6-6-6-6-|


                                                     
|------------------------|
|------------------------|
|------------------------|
|--------9----------8----|
|------------------------|
|--7--7-------7--7-------|



		Guitar II
|----------------------------|---------------------|----------------------------|
|----------------------------|---------------------|----------------------------|
|----------------------------|---------------------|----------------------------|
|----------------------------|---------------------|----------------------------|
|--6--6--6--6----6-6-6-6-6-6-|--6--6--6------------|--6--6--6--6----6-6-6-6-6-6-|
|--4--4--4--4----4-4-4-4-4-4-|--4--4--4------------|--4--4--4--4----4-4-4-4-4-4-|


                                                                            
|------------------------|----------------------------|---------------------|
|------------------------|----------------------------|---------------------|
|------------------------|----------------------------|---------------------|
|------------------------|----------------------------|---------------------|
|--------7----------6----|--6--6--6--6----6-6-6-6-6-6-|--6--6--6------------|
|--5--5-------5--5-------|--4--4--4--4----4-4-4-4-4-4-|--4--4--4------------|


                                                                                   
|----------------------------|------------------------|----------------------------|
|----------------------------|------------------------|----------------------------|
|----------------------------|------------------------|----------------------------|
|----------------------------|------------------------|----------------------------|
|--6--6--6--6----6-6-6-6-6-6-|--------7----------6----|--8--8--8--8----8-8-8-8-8-8-|
|--4--4--4--4----4-4-4-4-4-4-|--5--5-------5--5-------|--6--6--6--6----6-6-6-6-6-6-|


                                                                            
|---------------------|----------------------------|------------------------|
|---------------------|----------------------------|------------------------|
|---------------------|----------------------------|------------------------|
|---------------------|----------------------------|------------------------|
|--8--8--8------------|--8--8--8--8----8-8-8-8-8-8-|--------9----------8----|
|--6--6--6------------|--6--6--6--6----6-6-6-6-6-6-|--7--7-------7--7-------|


                                                                                
|----------------------------|---------------------|----------------------------|
|----------------------------|---------------------|----------------------------|
|----------------------------|---------------------|----------------------------|
|----------------------------|---------------------|----------------------------|
|--8--8--8--8----8-8-8-8-8-8-|--8--8--8------------|--8--8--8--8----8-8-8-8-8-8-|
|--6--6--6--6----6-6-6-6-6-6-|--6--6--6------------|--6--6--6--6----6-6-6-6-6-6-|


                                                     
|------------------------|
|------------------------|
|------------------------|
|------------------------|
|--------9----------8----|
|--7--7-------7--7-------|


		Lead guitar
|---------------------|--------------------|--------------------|
|--9------------10----|----------14--------|------13------------|
|---------------------|--------------------|--------------------|
|---------------------|--------------------|--------------------|
|---------------------|--------------------|--------------------|
|---------------------|--------------------|--------------------|


                                                                                 
|----------------------|--------------------|------------------------------------|
|--10--------------10--|--12----------------|--12------10----12----10----9----7--|
|----------------------|--------------------|------------------------------------|
|----------------------|--------------------|------------------------------------|
|----------------------|--------------------|------------------------------------|
|----------------------|--------------------|------------------------------------|


                                                          
|--------------------------------|------------------------|
|--9----7------------------------|------------------------|
|------------9----8----6----8----|--9----8----------------|
|--------------------------------|------------------------|
|--------------------------------|------------------------|
|--------------------------------|------------------------|


                                                   
|--19--18--16------16--18--19--18--16------16--18--|
|--------------19----------------------19----------|
|--------------------------------------------------|
|--------------------------------------------------|
|--------------------------------------------------|
|--------------------------------------------------|


                                                   
|--19--18--16------16--18--19--18--16--------------|
|--------------19----------------------19--18--16--|
|--------------------------------------------------|
|--------------------------------------------------|
|--------------------------------------------------|
|--------------------------------------------------|


                                                                        
|--------------------------------------------------|--------------------|
|--15--16--18--16--15------------------------------|--------------------|
|----------------------16--15--13--15--16--15--13--|--15----------------|
|--------------------------------------------------|--------------------|
|--------------------------------------------------|--------------------|
|--------------------------------------------------|--------------------|


                                                   
|--------------------------------------------------|
|--------------------------------------------------|
|--15-15-15-15-15-15-15-15-15-15-15-15-15-15-15-15-|
|--------------------------------------------------|
|--------------------------------------------------|
|--------------------------------------------------|


                                                   
|--------------------------------------------------|
|--12-12-12-12-12-12-12-12-12-12-12-12-12-12-12-12-|
|--------------------------------------------------|
|--------------------------------------------------|
|--------------------------------------------------|
|--------------------------------------------------|


                                                   
|--------------------------------------------------|
|--15-15-15-15-15-15-15-15-15-15-15-15-15-15-15-15-|
|--------------------------------------------------|
|--------------------------------------------------|
|--------------------------------------------------|
|--------------------------------------------------|


                                                                               
|--------------------------------------------------|--------------------|------|
|--16-16-16-16-16-16-16-16-16-16-16-16-16-16-15-15-|--16----------------|------|
|--------------------------------------------------|--------------------|------|
|--------------------------------------------------|--------------------|------|
|--------------------------------------------------|--------------------|------|
|--------------------------------------------------|--------------------|------|



Riff C
Riff D
Riff E (repeat 3x)
Добавлено: 14.07.2012
Другие материалы по этой песне:
  • Аккорды и текст

Страница создана 02.03.2012
http://primanota.ru/darkane/fear-of-ones-self-chords.htm
Привет, Гость.
Предлагаем пройти революционный курс по гитаре.
Подарок от PrimaNota.Ru, забирай!