PrimaNota.ru - самый крупный в мире бесплатный архив песенных текстов, аккордов, табулатур и нот


Dark Tranquillity - Zodijackyl Light - аккорды и текст, таба, видео

Регистрация Запомнить меня
Войти через:  Facebook Google Twitter Vk Yandex Mail.ru

Dark Tranquillity - Zodijackyl Light - аккорды и текст, таба, видео

Печатать
Просмотров: 229
Уроки эстрадного вокала в Санкт-Петербурге
Zodijackyl Light
Dark Tranquillity
strings: Db--Fb--Cb--Eb--Gb--Db

1st Riff:         Play twice
1/---------------------------/------------------------------------------
2/---------------------------/------------------------------------------
3/---------------------------/------------------------------------------
4/4------4---45---44---0--02-/4---0-----------------------24------------
5/-222222-22---00---00--00---/-22--00-2454-0244----57-0000--------------
6/---------------------------/-----------------3333---------------------

2nd Riff:
1/-------------------------------------------------/
2/-------------------------------------------------/
3/------4444-4------------4---5-4444---------------/
4/2224h5----5-555544-24524-452-5-------------------/
5/-------------------------------------------------/
6/-------------------------------------------------/

--play the 1st Riff

3rd Riff:  Play twice

1/-----------------------------------------------------------------------------/ 
2/-----------------------------------------------------------------------------/
3/-----------------------------------------------------------------------------/
4/---775h7-----10-9----9-7------------10-9-----10-9-----5-4----7-5-------------/
5/00-------0000--0-7777-7--10-10-10-10-10--0000--0--3333-3-5555-5-0h23-5p3-2h3-/
6/-----------------------------------------------------------------------------/

4th Riff:

1/-----------------------------------------------------------------------/
2/-----------------------------------------------------------------------/
3/-----------------------------------------------------------------------/
4/-------------------------------------999h10---775h7--553h5-**2h3**2h3h5/
5/---999h10--775h7--553h5-023320--00-77-------55-------------------------/
6/77-------55-----33------------32---------------------------------------/

Play the 2nd Riff:

                   /1/8-888-88-10p87-77-5h78888--------88h10-10h1212----------------/
                   /2/--------------------------8p7-777-------------88-810-10h12-108/
                   /3/5-555-55--7p54-44-2h45555--------55h7---7h9-9-----------------/                                        
     -guitar solo: /4/--------------------------5p4-444-------------55-5-7-7-h-9-7-5/
                   /5/--------------------------------------------------------------/
                   /6/--------------------------------------------------------------/

1/------------------------------------------------------------15-1515/
2/8h10-87--------------171717-151515p131315171717-13p12-121212-------/    
3/-------------------------------------------------------------------/
4/5h-7-54-4h5p4h5p4h5p4----------------------------------------------/
5/-------------------------------------------------------------------/
6/-------------------------------------------------------------------/

1/-------------141414-------------------------12----------------------/
2/151515-171717------13-131313-13-13-131313-13--121212-12-12-121212-12/
3/--------------------------------------------------------------------/
4/--------------------------------------------------------------------/
5/--------------------------------------------------------------------/
6/--------------------------------------------------------------------/

1/-------------------------15-151515-15-15-151515-15-------------------------/
2/13-131313-13-13-131313-13-------------------------13-131313-13-13-131313-13/
3/---------------------------------------------------------------------------/
4/---------------------------------------------------------------------------/
5/---------------------------------------------------------------------------/
6/---------------------------------------------------------------------------/

1/12------------------------------------------------15-151515-15-15-151515-15/
2/--121212-12-12-121212-12-13-131313-13-13-131313-13-------------------------/
3/---------------------------------------------------------------------------/                                     
4/---------------------------------------------------------------------------/
5/---------------------------------------------------------------------------/
6/---------------------------------------------------------------------------/
Regards, Kantele
Добавлено: 30.06.2012
Другие материалы по этой песне:

Страница создана 07.03.2012
http://primanota.ru/dark-tranquillity/zodijackyl-light-chords.htm
Привет, Гость.
Предлагаем пройти революционный курс по гитаре.
Подарок от PrimaNota.Ru, забирай!