PrimaNota.ru - самый крупный в мире бесплатный архив песенных текстов, аккордов, табулатур и нот


Dark Tranquillity - With The Flaming Shades of Fall - текст песни, таба, видео

Регистрация Запомнить меня
Войти через:  Facebook Google Twitter Vk Yandex Mail.ru

Dark Tranquillity - With The Flaming Shades of Fall - текст песни, таба, видео

Печатать
Просмотров: 184
Dark Tranquillity - With Flaming Shades Of Fall
Normal Tuning

Intro
|-----------------------------------------------------|
|-----------------------------------------------------|
|-----------------------------------------------------|
|-----9---------------------9-------------------------|
|-----7---------------------7-------------------------|
|-0-0---------------------0---------------------------|
|                                                     |
|-----------------------------------------------------|
|-----------------------------------------------------|
|-----------------------------------------------------|
|-----------------------------------------------------|
|-------7-8-5-7-2-3-5--3----10---9--7\2--2-2-2--------|
|-------------------------0----0----------------------|

Solo thing
|---------------------------------------------------------|
|---------------------------------------------------------|
|--16---14-12-11h12-11---------------------------------11-|
|-----------------------12--10p9-9---14p13-13-14-13-14----|
|---------------------------------------------------------|
|---------------------------------------------------------|

|--------------------------------------------------|
|---------------------12ah----------------12-------|
|-13--14-16-----12-11-----------11-----11----11~---|
|-----------14-----------12---------9--------------|
|--------------------------------------------------|
|--------------------------------------------------|



|---------------------19-15-14----14~----14-------------|
|-------------17---17----------17-----------12~--12p10--|
|---------16--------------------------------------------|
|-----14------------------------------------------------|
|-14----------------------------------------------------|
|-------------------------------------------------------|

|-------------------------------------------------------------|
|------------------------------------------------------12ah~--|
|-13--14-16------12-11------------12-11-9~--9-11-12-14--------|
|-----------14---------12---12-9------------------------------|
|-------------------------------------------------------------|
|-------------------------------------------------------------|

After the solo: this part harmonises with the base
|-----------------------------------------------------|
|-----------------------------------------------------|
|-----------------------------------------------------|
|-----------------------------------------------------|
|-----------------------------------------------------|
|-5h7-7-7--0-0--5h7-7-7--0-0--2h3-3-3-2-0-3-2--2-2-2--|

Verse1 (this is tinged with a lot of harmonies, especially 
on the B5-C5 part, which I'm not going to figure out, I
think they're base-made anyway):
|-----------------------------------------------------|
|-----------------------------------------------------|
|-----------------------------------------------------|
|-7/9-9-9------7/9-9-9-----4/5-5-4-2-5-4-----4--------|
|-5/7-7-7------5/7-7-7-----2/3-3-2-0-3-2-----2--------|
|---------0-0----------0-0---------------0-0---0-0----|

Verse2, or prechorus:(start on the B5 that's after the C5)
|-------5------3--3h5p2--------------|
|-----------------------3----3h5p3---|
|--------------4--4h5p4--------------|
|-4-----2------5--5h7p5-4----4h5p4---|
|-2-----0---------------5----5h7p5---|
|------------------------------------|

Play verse1 again (this time, only 2 times)

The chorus:
|--------------------------------------------------------|
|--------------------------------------------------------|
|--------------------------------------------------------|
|-4----------2-------------------------------------------|
|-2----------0-------------------------------------------|
|--------------------------0-0-0-0-0-0-0-0-0-0-0-0-0--0--|
|                        | pm==========================
|------------------------|
|------------------------|
|------4--2--------------|
|---4--------5--4--2-----|
|---------------------5--|
|------------------------|

The kick-ass part after the chorus (verse3):
|------------------------------------------------|
|------------------------------------------------|
|------------------------------------------------|
|---5-----4-----------------5------4-------------|
|---7-----5-----2-3-5-3-----7------5----7-2--2---|
|-0-----0-----0-----------0------0---------------|
                          |first time only |second time only
                          |----------------|------------|
                          |----------------|------------|
                          |----------------|-----4h5p4--|
                          |----------------|------------|
                          |--2-3-5---------|------------|
                          |----------------|------------|

The little lead thingie that goes along with verse3:
|---------------------------------------------------|
|--------------------------------------------12~----|
|-12~---11~----12~-----9~-----12~----11~------------|
|---------------------------------------------------|
|---------------------------------------------------|
|---------------------------------------------------|

Play verse1
Play verse2

Outro:
|-------------------------------------------------|
|-------------------------------------------------|
|-----------5-4-2-------2--9------5---------------|
|--2-----2---------5-4-----9------5------5-4-2-5--|
|--2---2-------------------7------3------3--------|
|--0---------------------------------0-0----------|

|-------------------------------------------------|
|-------------------------------------------------|
|-----------5-4-2-------2--9------5---------------|
|--2-----2---------5-4-----9------5------5-4-2-5--|
|--2---2-------------------7------3------3--------|
|--0---------------------------------0-0----------|

|-------------------------------------------------|
|-------------------------------------------------|
|-----------5-4-2-------2--9------5---------------|
|--2-----2---------5-4-----9------5------5-4-2-5--|
|--2---2-------------------7------3------3--------|
|--0---------------------------------0-0----------|
|                                                 |
|-------------------------------------------------|
|-------------------------------------------------|
|---------------------------------4/5----7----9---|
|-------------------------------------------------|
|-------------------------------------------------|
|-------------------------------------------------|

|-------------------------------------------------------|
|-------------------------------------------------------|
|-----------5-4-2-------2--9------5---------------------|
|--2-----2---------5-4-----9------5------5-4-2-5-----5~-|
|--2---2-------------------7------3------3--------------|
|--0---------------------------------0-0----------------|
|                                                       |
|-------------------------------------------------------|
|-------------------------------------------------------|
|--------------------------4----4\2-2-------------------|
|--------------------------5-----------5-5-4-2-5-----5~-|
|-------------------------------------------------------|
|-------------------------------------------------------|

Play verse1, then chorus and end with an E5
guitar 2's end:
D|--2--|
Добавлено: 30.07.2012
Вам также может быть интересно:
Другие материалы по этой песне:
  • Аккорды и текст

Страница создана 02.03.2012
http://primanota.ru/dark-tranquillity/with-the-flaming-shades-of-fall-chords.htm
Привет, Гость.
Предлагаем пройти революционный курс по гитаре.
Подарок от PrimaNota.Ru, забирай!