PrimaNota.ru - самый крупный в мире бесплатный архив песенных текстов, аккордов, табулатур и нот


Dark Tranquillity - Freecard - аккорды и текст, таба, видео

Регистрация Запомнить меня
Войти через:  Facebook Google Twitter Vk Yandex Mail.ru

Dark Tranquillity - Freecard - аккорды и текст, таба, видео

Печатать
Просмотров: 252
Авторы музыки: Dark Tranquillity
Авторы текста: Mikael Stanne
Freecard
Dark Tranquillity
Tune To C#


(Riff A is Piano Transcribed for Guitar)

Riff A.1
|--8----------------------8-7-5-7-8--|
-------------------------|
-------------------------|Gtr I
-------------------------|
-------------------------|
-------------------------|
|                                    |
-------------------------|
5---------------5--------|
|-------5-------5-------5-------5----|Gtr II
|-----7---7---7---7---7---7---7---7--|
-------------------------|
|--5----------------5----------------|


Riff A.2
|--7------------5---4-------5---7----|
-------------------------|
-------------------------|Gtr I
-------------------------|
-------------------------|
-------------------------|
|                                    |
-------------------------|
6---5-----------6---5----|
|-------4---------------4------------|Gtr II
|-----6---6---6---6---6---6---6---6--|
-------------------------|
|--4----------------4----------------|


Repeat Riff A.1


Riff A.3
|--7------------5---4------13---7----|
-------------------------|
-------------------------|Gtr I
-------------------------|
-------------------------|
-------------------------|
|                                    |
-------------------------|
6---5-----------6---5----|
|-------4---------------4------------|Gtr II
|-----6---6---6---6---6---6---6---6--|
-------------------------|
|--4----------------4----------------|

Repeat Riff A.1
Repeat Riff A.2
Repeat Riff A.1
Repeat Riff A.3

Riff B
-----------------------------------|
-----------------------------------|
----------------9977---------hp----|Gtr I
|-------7777999910101010--------101010109109---|
|-0--------------------------------------------|
--------------0--------------------|
 

-----------------------------------|
-----------------------------------|
----------------9977------77-------|Gtr I
|-------7777999910101010--------991010--101099-|
|-0--------------------------------------------|
--------------0--------------------|

Repeat Riff B

Riff C
---------------------------|
---------------------------|
---------------------hp----|Gtr I
|----------55557777-----55223333232----|
|-5----8888-----------3----------------|
---------------------------|


---------------------------|
---------------------------|
---------------------------|Gtr I
|----------55557777-----22335533223355-|
|-5----8888-----------3----------------|
---------------------------|


Repeat Riff B (Mute all tremeloed notes)
Repeat Riff C (Mute all tremeloed notes)


Riff D
------------------------------------|
-----------5-5hb+r-------------6--5-|
|-5------------5-7-5-7---------7--5-7-4"--------|Gtr I
------------------------------------|
------------------------------------|
------------------------------------|


------hp----------------------------|
|-5------------6-565---8-6-5--------------------|
---------7---------7--5-7-4"--(4)hb-|Gtr I
------------------------------------|
------------------------------------|
------------------------------------|


Riff E
-------------------------------|
-------------------------------|
-------------------------------|Gtr I
|--7-------7------6------------6-----------|
|--7-------7------7--/88887777-7--55553333-|
|--5-------5------4------------4-----------|


------------------------------------|
------------------------------------|
------------------------------------|Gtr I
|--7--------------6666-----------6666-----------|
|--7--------------7777--88887777-7777--55557777-|
|--5--------------4444-----------4444-----------|
                  ....           ....

Repeat Riff B
Repeat Riff C
Repeat Riff B
Repeat Riff C


Riff F (Soft Clean Tone Gtrs)
|----------7---8--------12-10-8----7----|
|-----10--------------8-----------------|
----------------------------|Gtr I
----------------------------|
----------------------------|
----------------------------|
|                                       |
----------------------------|
----------------------------|
|---9----9---9----9---------------------|Gtr II
|-7---10---7---10-----9-----------------|
--------7---7--10-7-10-7-10-|
----------------------------|



|----------7---8------12-10-7-8-10-8-7--|
|-----10--------------------------------|
----------------------------|Gtr I
----------------------------|
----------------------------|
----------------------------|
|                                       |
----------------------------|
----------------------------|
|---9----9---9----9---------------------|Gtr II
|-7---10---7---10-----9---------9----9--|
--------7----7-10-7---10----|
----------------------------|

(Didn't get to finish this middle part yet....)
--------------------------------------------------------------|
--------------------------------------------------------------|
--------------------------------------------------------------|
--------------------------------------------------------------|
--------------------------------------------------------------|
--------------------------------------------------------------|


--------------------------------------------------------------|
--------------------------------------------------------------|
--------------------------------------------------------------|
--------------------------------------------------------------|
--------------------------------------------------------------|
--------------------------------------------------------------|

Repeat Riff B
Repeat Riff C
Repeat Riff B (Mute all tremeloed notes)
Repeat Riff C (Mute all tremeloed notes)
Repeat Riff D
Repeat Riff E (simile)


Riff J Play with Riff A 
----------------------|
|-----5---------------5-----------|
|---------5---------------5-------|Gtr I
|---7---7-----7-----7---7-----7---|
|-7---------7-----7---------7-----|
----5---------------5-|

----------------------|
|---------6---5-----------6---5---|
|-----4---------------4-----------|Gtr I
|---6---6---6---6---6---6---6---6-|
----------------------|
|-4---------------4---------------|


Repeat Riff J


Riff K
----------------------|
|---------5-----------------------|
------5---------------|Gtr I
|-----7-------------------7-------|
-------7-----------|
|-5---------------------------5---|



Regards, Kantele
Добавлено: 25.07.2012
Другие материалы по этой песне:

Страница создана 08.04.2012
http://primanota.ru/dark-tranquillity/freecard-chords.htm
Привет, Гость.
Предлагаем пройти революционный курс по гитаре.
Подарок от PrimaNota.Ru, забирай!