PrimaNota.ru - самый крупный в мире бесплатный архив песенных текстов, аккордов, табулатур и нот


Dark Tranquility - The Mundane And The Magic - текст песни, таба, видео

Регистрация Запомнить меня
Войти через:  Facebook Google Twitter Vk Yandex Mail.ru

Dark Tranquility - The Mundane And The Magic - текст песни, таба, видео

Печатать
Просмотров: 52
---------------------------------------------------------------------------------------------------
                                          Artist - Dark Tranquility
                                         ***************************
                                      Song - The Mundane And The Magic
                                     **********************************
                                           Album - Fiction (2007)   
                                          ***********************
                                           Tabbed By - Ayreon77
                                          **********************
---------------------------------------------------------------------------------------------------
Tuning = Standard



e|------------|------------------------------|---------------------------------------------|
B|------------|------------------------------|--h-p----------------------------------------|
G|-6--5-------|------------------------------|-5-6-5---5------p----------------------------|
D|------6-8-8-|--------------h-p-------------|-------8---8-6-8-6----br---------------------|
A|------------|-----8-6--8--6-8-6------------|-------------------8------------b------------|
E|------------|-6-9---------------9--9-8-9-8-|-------------------------6-8-8------6-4-2--1-|

                                                     Pleck
e|----------------------------------------------------Pinch------------|--h-h--------|--------------|
B|------------------------------------------------------p--------2-1-2-|-1-2-4-1---1-|--------------|
G|--h-h---------h-h----h-h--------------h-h----------1-3-1---1-3-------|---------3---|-----s--s-----|
D|-0-1-3--h-h--0-1-3--0-1-3--h-h-h-----0-2-3-----1-3-------3-----------|-------------|-1--3\4/3-1-3-|
A|-------0-1-3--------------0-1-3-4--3-------1-3-----------------------|-------------|--------------|
E|---------------------------------------------------------------------|-------------|--------------|


e|-------|--h--4---b-------h-h-------|
B|-------|-1-2---2-1-~~~--1-2-4-~~~~-|
G|-1-3---|---------------------------|
D|-----1-|---------------------------|
A|-------|---------------------------|
E|-------|---------------------------|



ENJOY.......
Добавлено: 29.12.2015
Другие материалы по этой песне:
  • Аккорды и текст

Страница создана 13.11.2013
http://primanota.ru/dark-tranquility/the-mundane-and-the-magic-chords.htm
Привет, Гость.
Предлагаем пройти революционный курс по гитаре.
Подарок от PrimaNota.Ru, забирай!