PrimaNota.ru - самый крупный в мире бесплатный архив песенных текстов, аккордов, табулатур и нот


Dark New Day - That's Enough - текст песни, таба, видео

Регистрация Запомнить меня
Войти через:  Facebook Google Twitter Vk Yandex Mail.ru

Dark New Day - That's Enough - текст песни, таба, видео

Печатать
Просмотров: 39
-------------------------------------------------------------------------------
                             That's Enough - Dark New Day
-------------------------------------------------------------------------------
Tabbed by:Ferdos Shahidi
E-mail:www.ferdosshahidi@gmail.com

>>>>WARNING<<<<< IT'S NOT NORMAL Drop C (check your tune)

                   Tuning:C G C F G C

This is a corrected version tab of what I played in my youtube video:
https://www.youtube.com/watch?v=JdQt2hk0Kh4



Intro:all notes played palm mute
(guitar#1)
C|----------------------------------------------------------------------------------|
G|----------------------------------------------------------------------------------|
F|----------------------------------------------------------------------------------|
C|----------------------------------------------------------------------------------|x4
G|-5-5-5-5-5-5-5-5/13-13-13-13\8-8-8-8/12-12-12-12-12-12-12-12\10-10-10-10\8-8-8-8--|
C|----------------------------------------------------------------------------------|
   . . . . . . . . .  .  .  .  . . . . .  .  .  .  .  .  .  .  .  .  .  .  . . . .


(guitar#1)
C|----------------------------------------------------------------------------------|
G|----------------------------------------------------------------------------------|
F|----------------------------------------------------------------------------------|
C|----------------------------------------------------------------------------------|
G|-5-5-5-5-5-5-5-5/13-13-13-13\8-8-8-8/12-12-12-12-12-12-12-12\10-10-10-10\8-8-8-8--|
C|----------------------------------------------------------------------------------|
   . . . . . . . . .  .  .  .  . . . . .  .  .  .  .  .  .  .  .  .  .  .  . . . .

(guitar#2)                      let it ring                             let it ring
C|--------<5>------------------------0-------------<5>-----------------------0------|
G|-------------------------<5>---<9>---3---------------------------<5>---<9>---3----|
F|-----------------<5>--------------------------------------<5>---------------------|
C|----------------------------------------------------------------------------------|
G|----------------------------------------------------------------------------------|
C|----------------------------------------------------------------------------------|
 

(guitar#1)
C|----------------------------------------------------------------------------------|
G|----------------------------------------------------------------------------------|
F|----------------------------------------------------------------------------------|
C|----------------------------------------------------------------------------------|
G|-5-5-5-5-5-5-5-5/13-13-13-13\8-8-8-8/12-12-12-12-12-12-12-12\10-10-10-8-8-8-7-7---|
C|----------------------------------------------------------------------------------|
   . . . . . . . . .  .  .  .  . . . . .  .  .  .  .  .  .  .  .  .  .  .  . . . .


(guitar#2)                      let it ring
C|--------<5>------------------------0-------------<5>------------------------------|
G|-------------------------<5>---<9>---3-------------------------------------<5>----|
F|-----------------<5>--------------------------------------<5>------<5>------------|
C|----------------------------------------------------------------------------------|
G|----------------------------------------------------------------------------------|
C|----------------------------------------------------------------------------------|


(guitar#1)
C|---------------------------------------------------------------------------|
G|---------------------------------------------------------------------------|
F|---------------------------------------------------------------------------|
C|---------------------------------------------------------------------------|
G|-5-5-5-5-3-3-5-12-12-12-10-10-10-8-7-5-5-5-5-5-5-5-5-----------------------|
C|---------------------------------------------------------------------------|
   . . . . . . . .  .  .  .  .  .  . . . .  


(guitar#2)
C|---------------------------------------------------------------------------|
G|--------<5>----<5>---------<5>-----------<5>-------------------------------|
F|-<5>-----------------<5>----------<5>--------------------------------------|
C|---------------------------------------------------------------------------|
G|---------------------------------------------------------------------------|
C|---------------------------------------------------------------------------|


chorus:

(guitar#1)
C|-----------------------------------------------------------------|
G|-----------------------------------------------------------------|
F|-----------------------------------------------------------------|
C|-8-8-8-8-8-8-8-8-7-7-7-7-7-7-7-7-3-3-3-3-3-3-3-3-3-3-3-3-3-3-3-3-|
G|-8-8-8-8-8-8-8-8-7-7-7-7-7-7-7-7-3-3-3-3-3-3-3-3-3-3-3-3-3-3-3-3-|
C|-8-8-8-8-8-8-8-8-7-7-7-7-7-7-7-7-3-3-3-3-3-3-3-3-3-3-3-3-3-3-3-3-|


(guitar#2)
C|---------5---------3-----5h7-------------5---------3-----5h7-----|
G|-------------5---0---5-3-----5\3-------------5---0---5-3-----5\3-|
F|-2p0-5p0---0---0-----------------2p0-5p0---0---0-----------------|
C|-----------------------------------------------------------------|
G|-----------------------------------------------------------------|
C|-----------------------------------------------------------------|


(guitar#1)
C|-----------------------------------------------------------------|
G|-----------------------------------------------------------------|
F|-----------------------------------------------------------------|
C|-8-8-8-8-8-8-8-8-7-7-7-7-7-7-7-7-5-5-5-5-5-5-5-5-5-5-5-5-5-5-5-5-|
G|-8-8-8-8-8-8-8-8-7-7-7-7-7-7-7-7-5-5-5-5-5-5-5-5-5-5-5-5-5-5-5-5-|
C|-8-8-8-8-8-8-8-8-7-7-7-7-7-7-7-7-5-5-5-5-5-5-5-5-5-5-5-5-5-5-5-5-|


(guitar#2)
C|---------5---------3-----5h7-------------5---------3-----5h7-----|
G|-------------5---0---5-3-----5\3-------------5---0---5-3-----5\3-|
F|-2p0-5p0---0---0-----------------2p0-5p0---0---0-----------------|
C|-----------------------------------------------------------------|
G|-----------------------------------------------------------------|
C|-----------------------------------------------------------------|


(guitar#1)
C|-----------------------------------------------------------------|
G|-----------------------------------------------------------------|
F|-----------------------------------------------------------------|
C|-3-3-3-3-3-3-3-3-5-5-5-5-5-5-5-5---------------------------------|
G|-3-3-3-3-3-3-3-3-5-5-5-5-5-5-5-5-0-------------------------------|
C|-3-3-3-3-3-3-3-3-5-5-5-5-5-5-5-5-0-------------------------------|


(guitar#2)
C|---------5---------3-----5h7-----|
G|-------------5---0---5-3-----5\3-|
F|-2p0-5p0---0---0-----------------|
C|---------------------------------|
G|---------------------------------|
C|---------------------------------|



(guitar#1)
C|-----------------------------------------------------------------|
G|-----------------------------------------------------------------|
F|-----------------------------------------------------------------|
C|-----------------------------------------------------------------|
G|-13-13-13-13\8-8-8-8/12-12-12-12-12-12-12-12\10-10-10-10\8-8-8-8-|
C|-----------------------------------------------------------------|
   .  .  .  .  . . . . .  .  .  .  .  .  .  .  .  .  .  .  . . . .

(guitar#1)
C|----------------------------------------------------------------------------------|
G|----------------------------------------------------------------------------------|
F|----------------------------------------------------------------------------------|
C|----------------------------------------------------------------------------------|
G|-5-5-5-5-5-5-5-5/13-13-13-13\8-8-8-8/12-12-12-12-12-12-12-12\10-10-10-10\8-8-8-8--|
C|----------------------------------------------------------------------------------|
   . . . . . . . . .  .  .  .  . . . . .  .  .  .  .  .  .  .  .  .  .  .  . . . .


(guitar#1)
C|----------------------------------------------------------------------------------|
G|----------------------------------------------------------------------------------|
F|----------------------------------------------------------------------------------|
C|----------------------------------------------------------------------------------|
G|-5-5-5-5-5-5-5-5/13-13-13-13\8-8-8-8/12-12-12-12-12-12-12-12\10-10-10-10\8-8-8-8--|
C|----------------------------------------------------------------------------------|
   . . . . . . . . .  .  .  .  . . . . .  .  .  .  .  .  .  .  .  .  .  .  . . . .

(guitar#2)                      let it ring                             let it ring
C|--------<5>------------------------0-------------<5>-----------------------0------|
G|-------------------------<5>---<9>---3---------------------------<5>---<9>---3----|
F|-----------------<5>--------------------------------------<5>---------------------|
C|----------------------------------------------------------------------------------|
G|----------------------------------------------------------------------------------|
C|----------------------------------------------------------------------------------|


(guitar#1)
C|----------------------------------------------------------------------------------|
G|----------------------------------------------------------------------------------|
F|----------------------------------------------------------------------------------|
C|----------------------------------------------------------------------------------|
G|-5-5-5-5-5-5-5-5/13-13-13-13\8-8-8-8/12-12-12-12-12-12-12-12\10-10-10-8-8-8-7-7---|
C|----------------------------------------------------------------------------------|
   . . . . . . . . .  .  .  .  . . . . .  .  .  .  .  .  .  .  .  .  .  .  . . . .


(guitar#2)                      let it ring
C|--------<5>------------------------0-------------<5>------------------------------|
G|-------------------------<5>---<9>---3-------------------------------------<5>----|
F|-----------------<5>--------------------------------------<5>------<5>------------|
C|----------------------------------------------------------------------------------|
G|----------------------------------------------------------------------------------|
C|----------------------------------------------------------------------------------|


(guitar#1)
C|---------------------------------------------------------------------------|
G|---------------------------------------------------------------------------|
F|---------------------------------------------------------------------------|
C|---------------------------------------------------------------------------|
G|-5-5-5-5-3-3-5-12-12-12-10-10-10-8-7-5-5-5-5-5-5-5-5-----------------------|
C|---------------------------------------------------------------------------|
   . . . . . . . .  .  .  .  .  .  . . . .  


(guitar#2)
C|---------------------------------------------------------------------------|
G|--------<5>----<5>---------<5>-----------<5>-------------------------------|
F|-<5>-----------------<5>----------<5>--------------------------------------|
C|---------------------------------------------------------------------------|
G|---------------------------------------------------------------------------|
C|---------------------------------------------------------------------------|



chorus:

(guitar#1)
C|-----------------------------------------------------------------|        |
G|-----------------------------------------------------------------|        |
F|-----------------------------------------------------------------|        |
C|-8-8-8-8-8-8-8-8-7-7-7-7-7-7-7-7-3-3-3-3-3-3-3-3-3-3-3-3-3-3-3-3-|        |
G|-8-8-8-8-8-8-8-8-7-7-7-7-7-7-7-7-3-3-3-3-3-3-3-3-3-3-3-3-3-3-3-3-|        |        
C|-8-8-8-8-8-8-8-8-7-7-7-7-7-7-7-7-3-3-3-3-3-3-3-3-3-3-3-3-3-3-3-3-|        |        
                                                                            |
                                                                            |
(guitar#2)                                                                  |
C|---------5---------3-----5h7-------------5---------3-----5h7-----|        |
G|-------------5---0---5-3-----5\3-------------5---0---5-3-----5\3-|        |
F|-2p0-5p0---0---0-----------------2p0-5p0---0---0-----------------|        |
C|-----------------------------------------------------------------|        |
G|-----------------------------------------------------------------|        |
C|-----------------------------------------------------------------|        |
                                                                            |
                                                                            |
(guitar#1)                                                                  |x2
C|-----------------------------------------------------------------|        |
G|-----------------------------------------------------------------|        |
F|-----------------------------------------------------------------|        |
C|-8-8-8-8-8-8-8-8-7-7-7-7-7-7-7-7-5-5-5-5-5-5-5-5-5-5-5-5-5-5-5-5-|        |
G|-8-8-8-8-8-8-8-8-7-7-7-7-7-7-7-7-5-5-5-5-5-5-5-5-5-5-5-5-5-5-5-5-|        |
C|-8-8-8-8-8-8-8-8-7-7-7-7-7-7-7-7-5-5-5-5-5-5-5-5-5-5-5-5-5-5-5-5-|        |
                                                                            |
                                                                            |
(guitar#2)                                                                  |
C|---------5---------3-----5h7-------------5---------3-----5h7-----|        |
G|-------------5---0---5-3-----5\3-------------5---0---5-3-----5\3-|        |
F|-2p0-5p0---0---0-----------------2p0-5p0---0---0-----------------|        |
C|-----------------------------------------------------------------|        |
G|-----------------------------------------------------------------|        |
C|-----------------------------------------------------------------|        |


(guitar#1)
C|---------------------------------|
G|---------------------------------|
F|---------------------------------|
C|-3-3-3-3-3-3-3-3-5-5-5-5-5-5-5-5-|
G|-3-3-3-3-3-3-3-3-5-5-5-5-5-5-5-5-|
C|-3-3-3-3-3-3-3-3-5-5-5-5-5-5-5-5-|


(guitar#2)
C|---------5---------3-----5h7-----|
G|-------------5---0---5-3-----5\3-|
F|-2p0-5p0---0---0-----------------|
C|---------------------------------|
G|---------------------------------|
C|---------------------------------|


BreakDown:

(guitar#1)                                                 let it ring
C|-----------------------------------------------------------------|
G|-------------------------------------------------------------3---|
F|-----------------------------------------------------------------|
C|-0-0-0-0-0-0-0-0-0-0-0-0-0-0-0-0-0-0-0-0-0-0-0-0-0-0-0-0-0h1---1-|
G|-----------------------------------------------------------------|
C|-----------------------------------------------------------------|
   . . . . . . . . . . . . . . . . . . . . . . . . . . . .


(guitar#1)                                                 let it ring
C|-----------------------------------------------------------------|
G|-------------------------------------------------------------3---|
F|-----------------------------------------------------------------|
C|-0-0-0-0-0-0-0-0-0-0-0-0-0-0-0-0-0-0-0-0-0-0-0-0-0-0-0-0-0h1---1-|
G|-----------------------------------------------------------------|
C|-----------------------------------------------------------------|
   . . . . . . . . . . . . . . . . . . . . . . . .


Bridge:

(guitar#1) 
C|----------------------------------------------------------|
G|----------------------------------------------------------|
F|----------------------------------------------------------|
C|----------------------------------------------------------|x2
G|-3/5-5-0------3/5-5-0------3/5-5-0------------------------|
C|---------3/10---------3/10---------3/10--5-5-5-5--3-3-3-3-|

(guitar#1)
C|-----------------------------------|
G|-----------------------------------|
F|-----------------------------------|
C|-5-5-5-5-5-5-5-5--3-3-3-3-3-3-3-3--|
G|-5-5-5-5-5-5-5-5--3-3-3-3-3-3-3-3--|
C|-5-5-5-5-5-5-5-5--3-3-3-3-3-3-3-3--|

(guitar#2)
C|---------5---------3-----5h7-----|
G|-------------5---0---5-3-----5\3-|
F|-2p0-5p0---0---0-----------------|
C|---------------------------------|
G|---------------------------------|
C|---------------------------------|

(guitar#2)
C|---------5---------3-----5h7-----|
G|-------------5---0---5-3-----5\3-|
F|-2p0-5p0---0---0-----------------|
C|---------------------------------|
G|---------------------------------|
C|---------------------------------|


chorus:

(guitar#1)
C|-----------------------------------------------------------------|        |
G|-----------------------------------------------------------------|        |
F|-----------------------------------------------------------------|        |
C|-8-8-8-8-8-8-8-8-7-7-7-7-7-7-7-7-3-3-3-3-3-3-3-3-3-3-3-3-3-3-3-3-|        |
G|-8-8-8-8-8-8-8-8-7-7-7-7-7-7-7-7-3-3-3-3-3-3-3-3-3-3-3-3-3-3-3-3-|        |        
C|-8-8-8-8-8-8-8-8-7-7-7-7-7-7-7-7-3-3-3-3-3-3-3-3-3-3-3-3-3-3-3-3-|        |        
                                                                            |
                                                                            |
(guitar#2)                                                                  |
C|---------5---------3-----5h7-------------5---------3-----5h7-----|        |
G|-------------5---0---5-3-----5\3-------------5---0---5-3-----5\3-|        |
F|-2p0-5p0---0---0-----------------2p0-5p0---0---0-----------------|        |
C|-----------------------------------------------------------------|        |
G|-----------------------------------------------------------------|        |
C|-----------------------------------------------------------------|        |
                                                                            |
                                                                            |
(guitar#1)                                                                  |x2
C|-----------------------------------------------------------------|        |
G|-----------------------------------------------------------------|        |
F|-----------------------------------------------------------------|        |
C|-8-8-8-8-8-8-8-8-7-7-7-7-7-7-7-7-5-5-5-5-5-5-5-5-5-5-5-5-5-5-5-5-|        |
G|-8-8-8-8-8-8-8-8-7-7-7-7-7-7-7-7-5-5-5-5-5-5-5-5-5-5-5-5-5-5-5-5-|        |
C|-8-8-8-8-8-8-8-8-7-7-7-7-7-7-7-7-5-5-5-5-5-5-5-5-5-5-5-5-5-5-5-5-|        |
                                                                            |
                                                                            |
(guitar#2)                                                                  |
C|---------5---------3-----5h7-------------5---------3-----5h7-----|        |
G|-------------5---0---5-3-----5\3-------------5---0---5-3-----5\3-|        |
F|-2p0-5p0---0---0-----------------2p0-5p0---0---0-----------------|        |
C|-----------------------------------------------------------------|        |
G|-----------------------------------------------------------------|        |
C|-----------------------------------------------------------------|        |


(guitar#1)
C|---------------------------------|
G|---------------------------------|
F|---------------------------------|
C|-3-3-3-3-3-3-3-3-5-5-5-5-5-5-5-5-|
G|-3-3-3-3-3-3-3-3-5-5-5-5-5-5-5-5-|
C|-3-3-3-3-3-3-3-3-5-5-5-5-5-5-5-5-|


(guitar#2)
C|---------5---------3-----5h7-----|
G|-------------5---0---5-3-----5\3-|
F|-2p0-5p0---0---0-----------------|
C|---------------------------------|
G|---------------------------------|
C|---------------------------------|


Outro:

(guitar#1) 
C|----------------------------------------------------------|
G|----------------------------------------------------------|
F|----------------------------------------------------------|
C|----------------------------------------------------------|x3
G|-3/5-5-0------3/5-5-0------3/5-5-0------------------------|
C|---------3/10---------3/10---------3/10--5-5-5-5--3-3-3-3-|


(guitar#1) 
C|----------------------------------------------------------|
G|----------------------------------------------------------|
F|----------------------------------------------------------|
C|-----------------------------------------5----------------|
G|-3/5-5-0------3/5-5-0------3/5-5-0-------5----------------|
C|---------3/10---------3/10---------3/10--5----------------|


(guitar#1)
C|----------------------------------------------------------------------------|
G|----------------------------------------------------------------------------|
F|----------------------------------------------------------------------------|
C|-5---------------------3------------------5---------------------0-----------|
G|-5---------------------3------------------5---------------------0-----------|
C|-5---------------------3------------------5---------------------0-----------|

(guitar#2) let all ring together

C|-----0-------0-----------0---0---0--0----------0-------0---------|
G|-2-----3-2h3---3-2-2p0-----3------------0-2------3-2h3---3-2-2p0-|
F|-------------------------------0------0--------------------------|
C|-----------------------------------------------------------------|
G|-----------------------------------------------------------------|
C|-----------------------------------------------------------------|

(guitar#2)
C|------------------|
G|-------------<5>--|
F|---------<5>------|
C|-----<5>----------|play until the music fades out
G|-<5>--------------|
C|------------------|


Enjoy!

************************************

| /   slide up
| \   slide down
| h   hammer-on
| p   pull-off
| ~   vibrato
| +   harmonic
| x   Mute note
| b   Bend
| pb  Pre-bend
| br  Bend release
| pbr Pre-bend release
| brb Bend release bend
| .   palm muted note
************************************
Добавлено: 18.02.2016
Другие материалы по этой песне:
  • Аккорды и текст

Страница создана 23.06.2012
http://primanota.ru/dark-new-day/thats-enough-chords.htm
Привет, Гость.
Предлагаем пройти революционный курс по гитаре.
Подарок от PrimaNota.Ru, забирай!