PrimaNota.ru - самый крупный в мире бесплатный архив песенных текстов, аккордов, табулатур и нот


Dark New Day - Pieces - текст песни, таба, видео

Регистрация Запомнить меня
Войти через:  Facebook Google Twitter Vk Yandex Mail.ru

Dark New Day - Pieces - текст песни, таба, видео

Печатать
Просмотров: 158
----------------------------------------------------------------------------
                             PIECES - Dark New Day
----------------------------------------------------------------------------
Tabbed by:KemAï
Email:darkvador2004@aol.com

Tuning:Bb,F,Bb,Eb,G,C

Riff 1 (0:25):
|---------------------------------------------------------------------------|
|---------------------------------------------------------------------------|
|---------------------------------------------------------------------------|
|---------------------------------------------------------------------------|
|---------------------------------------------------------------------------|
|-0----0--0-0--0----0--0-0--0----0--0-0--0--0-0--0---0--*3------------------|
PM        . .          . .          . .     . .      .

Riff 2 (0:34):
|---------------------------------------------------------|-----------------|
|---------------------------------------------------------|-----------------|
|---------------------------------------------------------|-----------------|
|---------------------------------------------------------|-x3--------------|
|---------------------------------------------------------|-----------------|
|-0--0-0--0----0--0-0--0----0--0-0--0--0-0--0---0--*3-----|-----------------|
PM   . .          . .          . .     . .      .

Riff 3 (0:49):
|--------------------------------------------------|------------------------|
|--------------------------------------------------|------------------------|
|------------0------5------------------0------5----|------------------------|
|----7-777-7---5--4------------7-7-7-7---5--4------|---x2-------------------|
|--------------------------------------------------|------------------------|
|-0--------------------0-0-0-0---------------------|------------------------|
PM   . ...             . . . . . . .

Riff 3 (1:01):
|---------------------------------------------------|--------|--------------|
|---------------------------------------------------|--------|--------------|
|---------------------------------------------------|--------|--------------|
|-0-0-0---0--0--0-0-0---7-5-7-8-7-5--5--5--5-5-5--5-|1-1-1--1|--------------|
|-0-0-0---0--0--0-0-0---7-5-7-8-7-5--5--5--5-5-5--5-|1-1-1--1|-x4-----------|
|-0-0-0---0--0--0-0-0---7-5-7-8-7-5--5--5--5-5-5--5-|1-1-1--1|--------------|
PM           .          . . .           .

|----------------------------------------------------------------------------|
|----------------------------------------------------------------------------|
|----------------------------------------------------------------------------|
|-0-0-0--0--0--0-0-0---7-5-7-8-7-5--5--5--5-5-5--5-|1-1-1--1|---|8-8-8--8|---|
|-0-0-0--0--0--0-0-0---7-5-7-8-7-5--5--5--5-5-5--5-|1-1-1--1|x2-|8-8-8--8----|x2
|-0-0-0--0--0--0-0-0---7-5-7-8-7-5--5--5--5-5-5--5-|1-1-1--1|---|8-8-8--8|---|
PM          .          . . .           .

Riff 4 (2:40):
|---------------------------------------------------------------------------|
|---------------------------------------------------------------------------|
|---------------------------------------------------------------------------|
|---------------------------------------------------------------------------|
|-----------------------------------------------------------------------x2--|
|-0000000000000000-5555555555555555-1111111111111111-9999999999999999-------|

Riff 5 (3:12):
|---|----------------------------------------------------|------------------|
|-3-|----------------------------------------------------|------------------|
|-2-|----------------------------------------------------|------------------|
|-1-|----------------------------------------------------|------------------|
|-0-|----------------------------------------------------|-x3---------------|
|---|0--0-0--0----0--0-0--0----0--0-0--0--0-0--0---0--*3-|------------------|
PM     . .          . .          . .     . .      .

Riff 6 (3:33)
|-----------------------------|--------|--------------|
|-----------------------------|--------|--------------|
|-----------------------------|--------|--------------|
|-7-5-7-8-7-5--5--5--5-5-5--5-|1-1-1--1|--------------|
|-7-5-7-8-7-5--5--5--5-5-5--5-|1-1-1--1|-x4-----------|
|-7-5-7-8-7-5--5--5--5-5-5--5-|1-1-1--1|--------------|
PM. . .           .

|----------------------------------------------------------------------------|
|----------------------------------------------------------------------------|
|----------------------------------------------------------------------------|
|-0-0-0--0--0--0-0-0---7-5-7-8-7-5--5--5--5-5-5--5-|1-1-1--1|---|8-8-8--8|---|
|-0-0-0--0--0--0-0-0---7-5-7-8-7-5--5--5--5-5-5--5-|1-1-1--1|x2-|8-8-8--8----|x2
|-0-0-0--0--0--0-0-0---7-5-7-8-7-5--5--5--5-5-5--5-|1-1-1--1|---|8-8-8--8|---|
PM          .          . . .           .

Riff 7 (3:52)
|----------------------------------------------------------------------------|
|----------------------------------------------------------------------------|
|-11--11-12-14/15---15/17-15-14-15-14b--15/17-15-14-15-10--15/17-15-14-15-10-|
|----------------------------------------------------------------------------|
|----------------------------------------------------------------------------|
|--------------------------------x2------------------------------------------|

| /  slide up
| \  slide down
| h  hammer-on
| p  pull-off
| ~  vibrato
| *  harmonic
|PM  palm mute
Добавлено: 02.05.2012
Другие материалы по этой песне:
  • Аккорды и текст

Страница создана 16.03.2012
http://primanota.ru/dark-new-day/pieces-chords.htm
Привет, Гость.
Предлагаем пройти революционный курс по гитаре.
Подарок от PrimaNota.Ru, забирай!