PrimaNota.ru - самый крупный в мире бесплатный архив песенных текстов, аккордов, табулатур и нот


Dark New Day - Evergreen - текст песни, таба, видео

Регистрация Запомнить меня
Войти через:  Facebook Google Twitter Vk Yandex Mail.ru

Dark New Day - Evergreen - текст песни, таба, видео

Печатать
Просмотров: 71
Dark New Day: Evergreen

Transcribed by: mysticguitar77

YouTube Channel: MysticGuitar77

Date last modified: August 16, 2014

Tuning: Drop B (B,F#,B,E,G#,C#)

Riff 1
C#|---------0--0--0--0----------0-0-0-0---------0--0--0--0----------0-0-0-0-|
G#|---------10-10-11-11---------5-5-6-6---------10-10-10-10---------8-8-8-8-|
 E|-------------------------------------------------------------------------|
 B|-0-0-0-0-------------3-3-3-3---------8-8-8-8-------------8-8-8-8---------|
F#|-0-0-0-0-------------3-3-3-3---------8-8-8-8-------------8-8-8-8---------|
 B|-0-0-0-0-------------3-3-3-3---------8-8-8-8-------------8-8-8-8---------|

C#|---------0--0--0--0----------0-0-0-0---------0--0--0--0--0--0--0--0--0-0-------------0-0-0-0-|
G#|---------10-10-11-11---------5-5-6-6---------10-10-10-10-11-11-11-11-6-6-------------5-5-5-5-|
 E|---------------------------------------------------------------------------------------------|
 B|-0-0-0-0-------------3-3-3-3---------8-8-8-8-----------------------------5-5-3-3-3-3---------|
F#|-0-0-0-0-------------3-3-3-3---------8-8-8-8-----------------------------5-5-3-3-3-3---------|
 B|-0-0-0-0-------------3-3-3-3---------8-8-8-8-----------------------------5-5-3-3-3-3---------|

Riff 2 (light distortion)   "I've been living it my way..."
C#|---------------------------|
G#|-----------------3~-----3~-|
 E|---------------2-3~---2-3~-|
 B|-------------0------0------| x3
F#|---------------------------|
 B|-/7~--0-x-0----------------|

C#|---------------------------|
G#|---------------------------|
 E|-----------------5---------|
 B|---------------------------|
F#|-------------3/5----3h5----|
 B|-/7~--0-x-0-------------3/-|

Play Riff 2 x2   "Everything right in my eyes..."

Riff 3   "Say that you'll find no one else..."
C#|---------0--0--0--0----------0-0-0-0---------0--0--0--0----------0--0--0--0--|
G#|---------10-10-11-11---------5-5-6-6---------10-10-10-10---------10-10-10-10-|
 E|-----------------------------------------------------------------------------|
 B|-0-0-0-0-------------3-3-3-3---------8-8-8-8-------------8-8-8-8-------------|
F#|-0-0-0-0-------------3-3-3-3---------8-8-8-8-------------8-8-8-8-------------|
 B|-0-0-0-0-------------3-3-3-3---------8-8-8-8-------------8-8-8-8-------------|

C#|---------0--0--0--0----------0-0-0-0---------0--0--0--0--0--0--0--0--0-0-----|
G#|---------10-10-11-11---------5-5-6-6---------10-10-10-10-11-11-11-11-6-6-----|
 E|-----------------------------------------------------------------------------|
 B|-0-0-0-0-------------3-3-3-3---------8-8-8-8-----------------------------5-5-|
F#|-0-0-0-0-------------3-3-3-3---------8-8-8-8-----------------------------5-5-|
 B|-0-0-0-0-------------3-3-3-3---------8-8-8-8-----------------------------5-5-|

C#|-------------------------------------------------------------------|
G#|-------------------------------------------------------------------|
 E|-------------------------------------------------------------------|
 B|-0-0-0-0-0-0-0-0-3-3-3-3-3-3-3-3-3-8-8-8-8-8-8-8-8-8-8-8-8-8-8-8-8-|
F#|-0-0-0-0-0-0-0-0-3-3-3-3-3-3-3-3-3-8-8-8-8-8-8-8-8-8-8-8-8-8-8-8-8-|
 B|-0-0-0-0-0-0-0-0-3-3-3-3-3-3-3-3-3-8-8-8-8-8-8-8-8-8-8-8-8-8-8-8-8-|

1st chorus ending
C#|-------------------------0-0-0-0---------0--0--0--0--0--0--0--0--0-0-------------0-0-0-0-|
G#|-------------------------5-5-6-6---------10-10-10-10-11-11-11-11-6-6-------------5-5-5-5-|
 E|-----------------------------------------------------------------------------------------|
 B|-0-0-0-0-0-0-0-0-3-3-3-3---------8-8-8-8-----------------------------5-5-3-3-3-3---------|
F#|-0-0-0-0-0-0-0-0-3-3-3-3---------8-8-8-8-----------------------------5-5-3-3-3-3---------|
 B|-0-0-0-0-0-0-0-0-3-3-3-3---------8-8-8-8-----------------------------5-5-3-3-3-3---------|

2nd chorus ending
C#|---------0--0--0--0----------0-0-0-0---------0--0--0--0--0--0--0--0--0-0-----|
G#|---------10-10-11-11---------5-5-6-6---------10-10-10-10-11-11-11-11-6-6-----|
 E|-----------------------------------------------------------------------------|
 B|-0-0-0-0-------------3-3-3-3---------8-8-8-8-----------------------------5-5-|
F#|-0-0-0-0-------------3-3-3-3---------8-8-8-8-----------------------------5-5-|
 B|-0-0-0-0-------------3-3-3-3---------8-8-8-8-----------------------------5-5-|

3rd chorus ending   "I pray that you find nothing..."
C#|-------------------------------------------------------------------|
G#|-------------------------------------------------------------------|
 E|-------------------------------------------------------------------|
 B|-0-0-0-0-0-0-0-0-3-3-3-3-3-3-3-3-8-8-8-8-8-8-8-8-8-8-8-8-8-8-8-5-5-|
F#|-0-0-0-0-0-0-0-0-3-3-3-3-3-3-3-3-8-8-8-8-8-8-8-8-8-8-8-8-8-8-8-5-5-|
 B|-0-0-0-0-0-0-0-0-3-3-3-3-3-3-3-3-8-8-8-8-8-8-8-8-8-8-8-8-8-8-8-5-5-|

C#|-------------------------------------------------------------------|
G#|-------------------------------------------------------------------|
 E|-------------------------------------------------------------------|
 B|-0-0-0-0-0-0-0-0-3-3-3-3-3-3-3-3-8-8-8-8-8-8-8-8-8-8-8-8-8-8-8-8-8-|
F#|-0-0-0-0-0-0-0-0-3-3-3-3-3-3-3-3-8-8-8-8-8-8-8-8-8-8-8-8-8-8-8-8-8-|
 B|-0-0-0-0-0-0-0-0-3-3-3-3-3-3-3-3-8-8-8-8-8-8-8-8-8-8-8-8-8-8-8-8-8-|

C#|-----------------------------------------0--0--0--0--0--0--0--0--0-0-------------0-0-0-0-|
G#|-----------------------------------------10-10-10-10-11-11-11-11-6-6-------------5-5-5-5-|
 E|-----------------------------------------------------------------------------------------|
 B|-0-0-0-0-0-0-0-0-3-3-3-3-3-3-3-3-8-8-8-8-----------------------------5-5-3-3-3-3---------|
F#|-0-0-0-0-0-0-0-0-3-3-3-3-3-3-3-3-8-8-8-8-----------------------------5-5-3-3-3-3---------|
 B|-0-0-0-0-0-0-0-0-3-3-3-3-3-3-3-3-8-8-8-8-----------------------------5-5-3-3-3-3---------|

Play Riff 2 x3   "I've been given the one thing..."
Play Riff 3 x1   "Say that you'll find no one else..." (w/ 2nd chorus ending)

Riff 4   "Not effected by the ever changing world around us..."
C#|---------------------------------------------------------------------|
G#|---------------------------------------------------------------------|
 E|-----------------------------------------10-10-10-10-----------------|
 B|-3-3-3-3-3-3-3-3-5-5-5-5-5-5-5-5-0-0-0-0-x--x--x--x--8-8-8-8-8-8-8-8-|
F#|-3-3-3-3-3-3-3-3-5-5-5-5-5-5-5-5-0-0-0-0-8--8--8--8--8-8-8-8-8-8-8-8-|
 B|-3-3-3-3-3-3-3-3-5-5-5-5-5-5-5-5-0-0-0-0-0--0--0--0--8-8-8-8-8-8-8-8-|

C#|-------------------------------------------------------------------------|
G#|-------------------------------------------------------------------------|
 E|---------------------------------10-10-10-10-10/12-12-12-----------------|
 B|-3-3-3-3-3-3-3-3-5-5-5-5-5-5-5-5-x--x--x--x--x--x--x--x--8-8-8-8-8-8-8-8-|
F#|-3-3-3-3-3-3-3-3-5-5-5-5-5-5-5-5-8--8--8--8--8//10-10-10-8-8-8-8-8-8-8-8-|
 B|-3-3-3-3-3-3-3-3-5-5-5-5-5-5-5-5-0--0--0--0--0--0--0--0--8-8-8-8-8-8-8-8-|

C#|---------0--0--0--0----------0--0--0--0----------------------------------|
G#|---------10-10-10-10---------10-10-10-10---------------------------------|
 E|-------------------------------------------------------------------------|
 B|-7-7-7-7-------------7-7-7-7-------------5-5-5-5-5-5-5-5-5-5-5-5-5-5-5-5-|
F#|-7-7-7-7-------------7-7-7-7-------------5-5-5-5-5-5-5-5-5-5-5-5-5-5-5-5-|
 B|-7-7-7-7-------------7-7-7-7-------------5-5-5-5-5-5-5-5-5-5-5-5-5-5-5-5-|

Play Riff 3 x1   "We'll stay evergreen..." (w/ 3rd chorus ending)

Enjoy!!
Добавлено: 13.10.2014
Другие материалы по этой песне:
  • Аккорды и текст

Страница создана 19.05.2012
http://primanota.ru/dark-new-day/evergreen-chords.htm
Привет, Гость.
Предлагаем пройти революционный курс по гитаре.
Подарок от PrimaNota.Ru, забирай!