PrimaNota.ru - самый крупный в мире бесплатный архив песенных текстов, аккордов, табулатур и нот


Dark Moor - The Chariot - текст песни, бас-таба, видео

Регистрация Запомнить меня
Войти через:  Facebook Google Twitter Vk Yandex Mail.ru

Dark Moor - The Chariot - текст песни, бас-таба, видео

Печатать
Просмотров: 198
-------------------------------------------------------------------------------
                             The Chariot - Dark Moor
-------------------------------------------------------------------------------
Tabbed by: zoltan56

credit to songsterr for sheet music/tabs.

Intro:
F#|-----------------------------|
C#|-----------------------------|
G#|-----------------------------|
D#|-----------------------------|
A#|-333----333----333----111----|

F#|-----------------|-----------------|-----------------|-----------------|
C#|-----------------|-----------------|-----------------|-----------------|
G#|-5-5-5-5-5-5-5-5-|-5-5-5-5-5-5-5-5-|-5-5-5-5-5-5-5-5-|-3-3-3-3-3-3-3-3-|
D#|-----------------|-----------------|-----------------|-----------------|
A#|-----------------|-----------------|-----------------|-----------------|

F#|-----------------|-----------------|-----------------|-----------------|
C#|-----------------|-----------------|-----------------|-----------------|
G#|-5-5-5-5-5-5-5-5-|-5-5-5-5-5-5-5-5-|-3-3-3-3-3-3-3-3-|-3-3-3-3-3-3-3-3-|
D#|-----------------|-----------------|-----------------|-----------------|
A#|-----------------|-----------------|-----------------|-----------------|

Verse 1: 
F#|-----------------|-----------------|-----------------|-----------------|
C#|-----------------|-----------------|-----------------|-----------------|
G#|-----------------|-----------------|-----------------|-----------------|
D#|-----------------|-----------------|-----------------|-----------------|
A#|-3-3-3-3-3-3-3-3-|-3-3-3-3-3-3-3-3-|-3-3-3-3-3-4-4-4-|-3-3-3-8-8\7-7\4-|

F#|-----------------|-----------------|-----------------|-----------------|
C#|-----------------|-----------------|-----------------|-----------------|
G#|-----------------|-----------------|-----------------|-----------------|
D#|-----------------|-----------------|-----------------|-------6-6\5-5\1-|
A#|-3-3-3-3-3-3-3-3-|-3-3-3-3-3-3-3-3-|-3-3-3-3-3-4-4-4-|-3-3-3-----------|

Bridge:
F#|-----------------|-----------------|-----------------|-----------------|
C#|-----------------|-----------------|-----------------|-----------------|
G#|-----------------|-5-5-5-5-5-5-5-5-|-----------------|-3-3-3-3-3-1~--0-|
D#|-3-3-3-3-3-3-3-3-|-----------------|-1-1-1-1-1-1-1-1-|-----------------|
A#|-----------------|-----------------|-----------------|-----------------|

F#|-----------------|-----------------|-----------------|-----------------|
C#|-----------------|-----------------|-----------------|-----------------|
G#|-----------------|-5-5-5-5-5-5-5-5-|-----------------|-----------------|
D#|-3-3-3-3-3-3-3-3-|-----------------|-3-------3---3---|-5-5-5-5-5-------|
A#|-----------------|-----------------|-----------------|-----------------|

Chorus: X2
F#|-----------------|-----------------|-----------------|-----------------|
C#|-----------------|-----------------|-----------------|-----------------|
G#|-----------------|-----------------|-----------------|-----------------|
D#|-----------------|-----------------|-----------------|-----------------|
A#|-3-3-3-3-3-3-3-3-|-3-3-3-3-3-3-3-3-|-3-3-3-3-3-3-3-3-|-3-3-3-3-3-3-3-3-|

F#|-----------------|-----------------|-----------------|-----------------|
C#|-----------------|-----------------|-----------------|-----------------|
G#|-----------------|-----------------|-----------------|-----------------|
D#|-----------------|-----------------|-----------------|-----------------|
A#|-3-3-3-3-3-3-3-3-|-3-3-3-3-3-3-3-3-|-1-1-1-1-1-1-1-1-|-1-1-1-1-1-1-1-1-|

Verse 2:
F#|-----------------|-----------------|-----------------|-----------------|
C#|-----------------|-----------------|-----------------|-----------------|
G#|-----------------|-----------------|-----------------|-----------------|
D#|-----------------|-----------------|-----------------|-----------------|
A#|-3-3-3-3-3-3-3-3-|-3-3-3-3-3-3-3-3-|-3-3-3-3-3-3-3-1-|-1-1-1-1-1-1-1-1-|

F#|-----------------|-----------------|-----------------|-----------------|
C#|-----------------|-----------------|-----------------|-----------------|
G#|-----------------|-----------------|-----------------|-----------------|
D#|-----------------|-----------------|-----------------|-----------------|
A#|-3-3-3-3-3-3-3-3-|-3-3-3-3-3-3-3-3-|-3-3-3-3-3-3-3-3-|-1-1-1-1-1-1-1-1-|

Bridge:
F#|-----------------|-----------------|-----------------|-----------------|
C#|-----------------|-----------------|-----------------|-----------------|
G#|-----------------|-5-5-5-5-5-5-5-5-|-----------------|-3-3-3-3-3-1~--0-|
D#|-3-3-3-3-3-3-3-3-|-----------------|-1-1-1-1-1-1-1-1-|-----------------|
A#|-----------------|-----------------|-----------------|-----------------|

F#|-----------------|-----------------|-----------------|-----------------|
C#|-----------------|-----------------|-----------------|-----------------|
G#|-----------------|-5-5-5-5-5-5-5-5-|-----------------|-----------------|
D#|-3-3-3-3-3-3-3-3-|-----------------|-3-------3---3---|-5-5-5-5-5-------|
A#|-----------------|-----------------|-----------------|-----------------|

Chorus 2: X2
F#|-----------------|-----------------|-----------------|-----------------|
C#|-----------------|-----------------|-----------------|-----------------|
G#|-----------------|-----------------|-----------------|-----------------|
D#|-----------------|-----------------|-----------------|-----------------|
A#|-3-3-3-3-3-3-3-3-|-3-3-3-3-3-3-3-3-|-3-3-3-3-3-3-3-3-|-3-3-3-3-3-3-3-3-|

F#|-----------------|-----------------|-----------------|-----------------|
C#|-----------------|-----------------|-----------------|-----------------|
G#|-----------------|-----------------|-----------------|-----------------|
D#|-----------------|-----------------|-----------------|-----------------|
A#|-3-3-3-3-3-3-3-3-|-3-3-3-3-3-3-3-3-|-1-1-1-1-1-1-1-1-|-1-1-1-1-1-1-1-1-|

Interlude 1:
F#|-----------------|-----------------|-----------------|-----------------|
C#|-----------------|-----------------|-----------------|-----------------|
G#|-----------------|-----------------|-----------------|-----------------|
D#|-----------------|-------2-2-------|-----------------|-----------------|
A#|-3-3-4-4-3-3-3-4-|-4-3-3-----4-4-1-|-3-3-4-4-3-3-3-1-|-1-3-3-4-4-3-3-1-|

F#|-----------------|-----------------|-----------------|-----------------|
C#|-----------------|-----------------|-----------------|-----------------|
G#|-----------------|-----------------|-----------------|-----------------|
D#|-----------------|-------2-2-------|-----------------|-----------------|
A#|-3-3-4-4-3-3-3-4-|-4-3-3-----4-4-1-|-3-3-4-4-3-3-3-1-|-1-3-3-4-4-3-3-1-|

F#|-----------------|-----------------|-----------------|-----------------|
C#|-----------------|-----------------|-----------------|-----------------|
G#|-3---3---------3~|---1-3-1-3-1-4-6-|-----------------|---1---1---1-1-1-|
D#|---3-------------|-----------------|-----------------|-----------------|
A#|---------1---1---|-----------------|-1-1-1---1---1-1-|-----------------|

F#|-----------------|-----------------|-----------------|-----------------|
C#|-----------------|-----------------|-----------------|-----------------|
G#|-----------------|-3-1-3-1-3-1-4-6-|-----------------|-----------------|
D#|-----------------|-----------------|-6-6---6---6---6-|-----------------|
A#|-1-1-1---1---1-1-|-----------------|-----------------|-6-6---6---6--43-|

Choir:
F#|-----------------|-----------------|-----------------|-----------------|
C#|-----------------|-----------------|-----------------|-----------------|
G#|-----------------|-----------------|-----------------|-----------------|
D#|-----------------|-----------------|-----------------|-----------------|
A#|-3-3-3-3-3-3-3-3-|-3-3-3-3-3-3-4-6-|-3-3-3-3-3-3-3-3-|-1-1-1-1-1-1-4-6-|

F#|-----------------|-----------------|-----------------|-----------------|
C#|-----------------|-----------------|-----------------|-----------------|
G#|-----------------|-----------------|-----------------|-----------------|
D#|-----------------|-----------------|-----------------|-----------------|
A#|-3-3-3-3-3-3-3-3-|-3-3-3-3-3-3-4-6-|-3-3-3-3-3-3-3-3-|-1-1-1-1-1-1-4-6-|

Verse 3:
F#|-----------------|-----------------|-----------------|-----------------|
C#|-----------------|-----------------|-----------------|-----------------|
G#|-----------------|-----------------|-----------------|-----------------|
D#|-----------------|-----------------|-0-0-0-0-0-0-0-0-|-0-0-0-0-0-0-0-0-|
A#|-3-3-3-3-3-3-3-3-|-3-3-3-3-3-3-3-3-|-----------------|-----------------|

F#|-----------------|-----------------|-------------------------|-------------------------|
C#|-----------------|-----------------|-------------------------|-------------------------|
G#|-----------------|-----------------|-------------------------|-------------------------|
D#|-2-2-2-2-2-2-2-2-|-2-2-2-2-2-2-2/--|-16-16-16-16-16-16-16-16-|-16-16-16-16-16-16-16-16-|
A#|-----------------|-----------------|-------------------------|-------------------------|

F#|-----------------|-----------------|-----------------|-----------------|
C#|-----------------|-----------------|-----------------|-----------------|
G#|-----------------|-----7-----7---7-|-----------------|-----------------|
D#|-7-7-7-7-7-7-7-7-|-0000--0000--00--|-7-7-7-7-0-0-2-2-|-0000-0-0-3--2--1|
A#|-----------------|-----------------|-----------------|-----------------|

Solo:
F#|-----------------|-----------------|-----------------|-----------------|
C#|-----------------|-----------------|-----------------|-----------------|
G#|-----------------|-----------------|-----------------|-----------------|
D#|-0-0-0-0-0-0-0-0-|-0-0-0-0-0-3-2-1-|-0-0-0-0-0-0-0-0-|-0-0-0-0-0-3-2-1-|
A#|-----------------|-----------------|-----------------|-----------------|

F#|-----------------|-----------------|-----------------|-----------------|
C#|-----------------|-----------------|-----------------|-----------------|
G#|-----------------|-----------------|-----------------|-----------------|
D#|-2-2-2-2-2-2-2-2-|-2-2-2-2-2-2-2-2-|-2-2-2-2-2-2-2-2-|-2-2-2-2-2-2-2-2-|
A#|-----------------|-----------------|-----------------|-----------------|

Choir:
F#|-----------------|-----------------|-----------------|-----------------|
C#|-----------------|-----------------|-----------------|-----------------|
G#|-----------------|-----------------|-----------------|-----------------|
D#|-----------------|-----------------|-----------------|-----------------|
A#|-3-3-3-3-3-3-3-3-|-3-3-3-3-3-3-4-6-|-3-3-3-3-3-3-3-3-|-1-1-1-1-1-1-4-6-|

F#|-----------------|-----------------|-----------------|-----------------|
C#|-----------------|-----------------|-----------------|-----------------|
G#|-----------------|-----------------|-----------------|-----------------|
D#|-----------------|-----------------|-----------------|-----------------|
A#|-3-3-3-3-3-3-3-3-|-3-3-3-3-3-3-4-6-|-3-3-3-3-3-3-3-3-|-1-1-1-1-1-1-4-6-|

Interlude 2: nothing

Chorus 3: X2
F#|-----------------|-----------------|-----------------|-----------------|
C#|-----------------|-----------------|-----------------|-----------------|
G#|-----------------|-----------------|-----------------|-----------------|
D#|-----------------|-----------------|-----------------|-----------------|
A#|-3-3-3-3-3-3-3-3-|-3-3-3-3-3-3-3-3-|-3-3-3-3-3-3-3-3-|-3-3-3-3-3-3-3-3-|

F#|-----------------|-----------------|-----------------|-----------------|
C#|-----------------|-----------------|-----------------|-----------------|
G#|-----------------|-----------------|-----------------|-----------------|
D#|-----------------|-----------------|-----------------|-----------------|
A#|-3-3-3-3-3-3-3-3-|-3-3-3-3-3-3-3-3-|-1-1-1-1-1-1-1-1-|-1-1-1-1-1-1-1-1-|

Outro:
F#|-----------------|-----------------|-----------------|-----------------|
C#|-----------------|-----------------|-----------------|-----------------|
G#|-----------------|-----------------|-----------------|-----------------|
D#|-----------------|-------2-2-------|-----------------|-----------------|
A#|-3-3-4-4-3-3-3-4-|-4-3-3-----4-4-1-|-3-3-4-4-3-3-3-1-|-1-3-3-4-4-3-3-1-|

F#|-----------------|-----------------|-----------------|-----------------|
C#|-----------------|-----------------|-----------------|-----------------|
G#|-----------------|-----------------|-----------------|-----------------|
D#|-----------------|-------2-2-------|-----------------|-----------------|
A#|-3-3-4-4-3-3-3-4-|-4-3-3-----4-4-1-|-3-3-4-4-3-3-3-1-|-1-3-3-4-4-3-3-1-|

Enjoy, kind of long but thats Dark Moor for you, variations.

| /  slide up
| \  slide down
| h  hammer-on
| p  pull-off
| ~  vibrato
| +  harmonic
| x  Mute note
===============================================================================
Добавлено: 13.05.2015
Другие материалы по этой песне:

Страница создана 26.02.2012
http://primanota.ru/dark-moor/the-chariot-chords.htm
Привет, Гость.
Предлагаем пройти революционный курс по гитаре.
Подарок от PrimaNota.Ru, забирай!