PrimaNota.ru - самый крупный в мире бесплатный архив песенных текстов, аккордов, табулатур и нот


Dark Moor - Hand In Hand - текст песни, таба, видео

Регистрация Запомнить меня
Войти через:  Facebook Google Twitter Vk Yandex Mail.ru

Dark Moor - Hand In Hand - текст песни, таба, видео

Печатать
Просмотров: 194
 			        HAND IN HAND
		    	     ------------------
		               By Dark Moor
           	  (From Album The Hall of The Olden Dreams)








Transcribed By Sami Rikala


Tune 1/2 Down

|---------------------------------------------------------------------5-----|
|-------------------------------------------------------------------5---5---|
|-------------------------------6-7-------------------------------6---------|
|--------------------------6-7------7---------------------------------------|
|--5~--5-------------5-7-8-------------5~-5-------------5--7----------------|
|---------8-6-5-4-5~------------------------8-6-5-4-5~--3--5----------------|



|-5------5------5---6---8-6-5-----5-13-------13--------13----12-------12-10-|
|------6------6-----------------6---------15--------15-------------13-------|
|----7------7-----7---7-------7--------14--------14-------14----12----------|
|---------------------------------------------------------------------------|
|---------------------------------------------------------------------------|
|---------------------------------------------------------------------------|


|-------10--5-----5-----5----6---8-6-5-----5-6---8-6-10-----10-9-----9-10~--|
|----11---------6-----6------------------6----------------10-------8--------|
|-10----------7-----7-----7----7-------7-------7-------10-------9-----------|
|---------------------------------------------------------------------------|
|---------------------------------------------------------------------------|
|---------------------------------------------------------------------------|


Verse 1
|---------------------------------------------------------------------------|
|---------------------------------------------------------------------------|
|---------------------------------------------------------------------------|
|-----7----------7------7----------7----------------------------------------|
|-5-5-5--5-5-5-5-5--5-5-5--5-5-5-5-5------7----------7------7----------7----|
|-------------------------------------5-5-5--5-5-5-5-5--5-5-5--5-5-5-5-5----|


|---------------------------------------------------------------------------|
|---------------------------------------------------------------------------|
|---------------------------------------------------------------------------|
|-----------------------------------------7----------7----------------------|
|-----5----------5------5----------5--5-5-5--5-5-5-5-5--5-------------------|
|-3-3-3--3-3-3-3-3--3-3-3--3-3-3-3-3----------------------8-6-5-4-5~--------|



|---------------------------------------------------------------------------|
|---------------------------------------------------------------------------|
|---------------------------------------------------------------------------|
|-----7----------7------7----------7----------------------------------------|
|-5-5-5--5-5-5-5-5--5-5-5--5-5-5-5-5------7----------7------7----------7----|
|-------------------------------------5-5-5--5-5-5-5-5--5-5-5--5-5-5-5-5----|



|---------------------------------------------------------------------------|
|---------------------------------------------------------------------------|
|---------------------------------------------------------------------------|
|-------------------------------------8-------------------------------------|
|-----5----------5------5----------5--6--5-4--------------------------------|
|-3-3-3--3-3-3-3-3--3-3-3--3-3-3-3-3----------5-----------------------------|



-Intro-



Bridge
|---------------------------------------------------------------------------|
|---------------------------------------------------------------------------|
|---------------------------------------------------------------------------|
|-7-----7-----7--------------------------------5------5------5--------------|
|-5-5-5-5-5-5-5-/8-7-5--7-----7-----7----------3--3-3-3--3-3-3-/7-5-3-------|
|-----------------------5-5-5-5-5-5-5-/8-7-5--------------------------------|


|---------------------------------------------------------------------------|
|---------------------------------------------------------------------------|
|---------------------------------------------------------------------------|
|----------------------------------7-----7-----7----------------------------|
|-5-----5-----5---5-----5-----5----5-5-5-5-5-5-5-/8-7-5-7-----7-----7-------|
|-3-3-3-3-3-3-3-3-3-3-3-3-3-3-3-3-----------------------5-5-5-5-5-5-5/8-7-5-|




|---------------------------------------------------------------------------|
|---------------------------------------------------------------------------|
|---------------------------------------------------------------------------|
|--------------------------------------7------------------------------------|
|-5-----5-----5--5-----7-----7-----7---7------------------------------------|
|-3-3-3-3-3-3-3----6-3-5-5-5-5-5-5-5-5-5------------------------------------|



Chorus
|---------------------------------------------------------------------------|
|---------------------------------------------------------------------------|
|---------------------------------------------------------------------------|
|-7---------7---------7---------------7---------7---------7---------7-------|
|-5-5-5-5-5-5-5-5-5-5-5-5-5-5---------5-5-5-5-5-5-5-5-5-5-5-5-5-5-5-5-5-5---|
|---------------------------3-3-3-3-3---------------------------------------|




|---------------------------------------------------------------------------|
|---------------------------------------------------------------------------|
|---------------------------------------------------------------------------|
|-5-------------3-------------7---------7---------7-------------------7-----|
|-3-3-3-3-3-3-3-1-1-1-1-1-1-1-5-5-5-5-5-5-5-5-5-5-5-5-5-5-------------5-5-5-|
|-------------------------------------------------------3-3-3-3-3-3-3-------|



|---------------------------------------------------------------------------|
|---------------------------------------------------------------------------|
|---------------------------------------------------7-----------------------|
|-----------------------7---------------------------7-----------------------|
|-5-5-5-5-5-------------5-5-5-5-5-5-5-7-------------5-----------------------|
|---------3-3-3-3-3-3-3---------------5-5-5-5-5-5-5-------------------------|



|---------------------------------------------------------------------------|
|---------------------------------------------------------------------------|
|-7--7-7---3--3-3--7--7-7--3------------------------------------------------|
|-7--7-7---3--3-3--7--7-7--3----------3----------2--------------------------|
|-5--5-5---1--1-1--5--5-5--1--1-1-1-1-1--0-0-0-0-0--------------------------|
|---------------------------------------------------------------------------|



|-10-------10-12------12-9-----9-10------10--6-----6-5-----5-10----9-10h12p-|
|-------10---------11--------8--------10---------8-------6------------------|
|----10---------12---------9-------10----------7-------7--------10----------|
|---------------------------------------------------------------------------|
|---------------------------------------------------------------------------|
|---------------------------------------------------------------------------|


|-10p9-10---10-------10-12-------12-9-----9-10-------10-13-------13-12------|
|-----------------10----------11--------8---------10----------15---------11-|
|--------------10----------12---------9--------10----------14---------12----|
|---------------------------------------------------------------------------|
|---------------------------------------------------------------------------|
|---------------------------------------------------------------------------|



|-12-9-----9-10h12p10p9-10------------|
|--------8----------------------------|
|------9------------------------------|
|-------------------------------------|
|-------------------------------------|
|-------------------------------------|



-Bridge-


-Chorus-


Keyboard "solo"                         tr
|-------------------------------------17-18---------------------------------|
|--------------------------------tr-----------------------------------------|
|------------------------------14-15----------------------------------------|
|-7----------------------tr-------------------7--5--3--2------7-----5-3-----|
|-5-5-5-5-5-5-5......--12-13------------------5--3--1--0--5-5-5-3-3-3-1-5-7-|
|-----------------------------------------------------------------------3-5-|


Solo
|-----------------17b-17~--13h17p13------13-17p13-18p17p15h17p15------------|
|----------------------------------15--15-----------------------18-17-15-14~|
|------------------------------------14-------------------------------------|
|---------------------------------------------------------------------------|
|-5~--5---------------------------------------------------------------------|
|-------8-6-5-4-5~----------------------------------------------------------|



|-18-17-15--------------15-17-18-17-15-14-15-17-18-15-17-14-15----14--------|
|--------------------------------------------------------------16----15-16--|
|---------15-14-12-14-15----------------------------------------------------|
|---------------------------------------------------------------------------|
|---------------------------------------------------------------------------|
|---------------------------------------------------------------------------|




|---------------------------10~---17p13----13h17p13----13h18p13----13h17p13-|
|-13-15-11-13p11\10-11p10\8-------------15----------15----------15----------|
|---------------------------------------------------------------------------|
|---------------------------------------------------------------------------|
|---------------------------------------------------------------------------|
|---------------------------------------------------------------------------|





|----13-17~--17p12----12h17p12----12h18p12----12h17p12----12-17~------------|
|-15---------------14----------14----------14----------14-------------------|
|---------------------------------------------------------------------------|
|---------------------------------------------------------------------------|
|---------------------------------------------------------------------------|
|---------------------------------------------------------------------------|




|-18p15----15-18p15----15-20-18-17-20-18-17-15-17-18~-----------------------|
|-------15----------15---------------------------------16--15-14-\10--------|
|---------------------------------------------------------------------------|
|---------------------------------------------------------------------------|
|---------------------------------------------------------------------------|
|---------------------------------------------------------------------------|


-Chorus-


end



Comments or corrections?
Send mail to sami.rikala@luukku.com
Добавлено: 26.04.2012
Другие материалы по этой песне:

Страница создана 07.04.2012
http://primanota.ru/dark-moor/hand-in-hand-chords.htm
Привет, Гость.
Предлагаем пройти революционный курс по гитаре.
Подарок от PrimaNota.Ru, забирай!