PrimaNota.ru - самый крупный в мире бесплатный архив песенных текстов, аккордов, табулатур и нот


Dark Funeral - The Dawn No More Rises - текст песни, таба, видео

Регистрация Запомнить меня
Войти через:  Facebook Google Twitter Vk Yandex Mail.ru

Dark Funeral - The Dawn No More Rises - текст песни, таба, видео

Печатать
Просмотров: 152
Dark Funeral - The Dawn no more rises 

(taken from the "The Secrets of the Black Arts" album)

Tuning: E

Email comments and suggestions at: cfabro@arcadis.be


Main riff 

E||---------------------------------------------------------------------------|
B||---------------------------------------------------------------------------|
G||--4---4---4---4-----3---3---3---3-----4---4---4---4-----3---3---3---3------|
D||--6-----6---6---6---6-----6---6---6---6-----6---6---6---6-----6---6---6----|
A||--6-----------------6-----------------6-----------------6------------------|
E||---------------------------------------------------------------------------|

   ---------------------------------------------------------------------------|
   ---------------------------------------------------------------------------|
   ---2---2---2---2-----3--3--5--3----2---2---2---2-----3--3--5--3------------|
   ---5-----5---5---5---5--5--5--5----5-----5---5---5---5--5--5--5------------|
   ---5-----------------5--5--5--5----5-----------------5--5--5--5------------|
   ---------------------------------------------------------------------------|



fast picking on this one

E||--------------------------------------------------------|
B||--------------------------------------------------------|
G||--4---3---4---3---2---3---5---3---2---3---5---3---------|
D||--6---6---6---6---5---5---5---5---5---5---5---5---------|
A||--6---6---6---6---5---5---5---5---5---5---5---5---------|
E||--------------------------------------------------------|


Riff 2 (tremolo picking)

E||--------------------|
B||--------------------|
G||------6-------------|
D||--6---6---6---5-----|
A||--6---4---6---5-----|
E||--4-------4---3-----|


Riff 3 (the dawn no more rises...blah blah blah blah)

E||--------------------------|
B||---5----------------------|
G||---6---4---3---4--3---4---|
D||---6---6---4---4--4---6---|
A||---4---6---6---6--6---6---|
E||-------4--------------4---|

Riff 4

E||-------------------------------|
B||-------------------------------|
G||---4-----3----------3-----2----|
D||---6-----4----------5-----3----|
A||---6-----6----------5-----5----|
E||-------------------------------|

Riff 5 

E||-----------------------------------------------------|
B||-----------------------------------------------------|
G||-------6-----------------6------------4-4---3--------|
D||---6---6---6---5-----6---6---6---5----6-6---5--------|
A||---6---4---6---5-----6---4---6---5----6-6---5--------|
E||---4-------4---3-----4-------4---3----4-4---3--------|



Enjoy :)
Добавлено: 04.03.2012
Другие материалы по этой песне:

Страница создана 04.03.2012
http://primanota.ru/dark-funeral/the-dawn-no-more-rises-chords.htm
Привет, Гость.
Предлагаем пройти революционный курс по гитаре.
Подарок от PrimaNota.Ru, забирай!