PrimaNota.ru - самый крупный в мире бесплатный архив песенных текстов, аккордов, табулатур и нот


Dark Fortress - Through The Ages Of War - таба, видео

Регистрация Запомнить меня
Войти через:  Facebook Google Twitter Vk Yandex Mail.ru

Dark Fortress - Through The Ages Of War - таба, видео

Печатать
Просмотров: 118
Tab by: Someone(fimbulwinter@abv.bg)

Listen to the song for timing,strumming patterns etc.
e||-------------------------------||
B||-------------------------------||
G||-------------------------------||
D||--------------------------5--4-||
A||----7------2----3---5-----3--2-||
E||----5------0----1---3----------||

tremolo picking
e||--------------------------------------------||
B||--------------------------------------------||
G||---------------------------9-7t9p7----------||
D||----7---10-7----7-9------7---------10-9-7-9-||
A||-------------10--------8--------------------||
E||--------------------------------------------||

                                                                second time w/ pinch harmonics
e||-------------------------------------------------------------------||
B||-------------------------------------------------------------------||
G||------------------------------------6------------------6-4---------||
D||----7-------------------------------------7-----6----------7-6-4---||
A||----------8-----7-----8----10---------444---444---444------------7-||
E||------555---555---555---55-----------------------------------------||


e||----------------------------------------------------------------------------------------------||
B||----------------------------------------------------------------------------------------------||
G||---------------------7-7-------------------9-9------------------------------------------------||
D||-10---9-------7-9-10--------10------9-10-12------------12--------10-12-9----10-----10--9------||
A||---000-000000------------888--888888-------------101010---101010--------888----888---00-00-10-||
E||----------------------------------------------------------------------------------------------||


e||-----------------------------------------------------------------------------||
B||-----------------------------------------888-11-88888-8-10-11------888-11-10-||
G||---999-12-99999-9-11-12----9-12-11-----------------------------888-----------||
D||-----------------------10----------------------------------------------------||
A||-----------------------------------------------------------------------------||
E||-----------------------------------------------------------------------------||

tremolo picking
e||-----------------------------------------------------------------------||
B||------------8----------------------------------8-----------------------||
G||-----10-9-7---10-9-10---10-9-7-----7----10-9-7---10-9-10---10-9-7------||
D||---7------------------7--------10-----7------------------7--------10-7-||
A||-----------------------------------------------------------------------||
E||-----------------------------------------------------------------------||

rhytm
e||-----------||
B||-----------||
G||-----------||
D||---9---5-5-||
A||---7---3-3-||
E||-----------||

rhytm  missing solo
e||------------------------||
B||------------------------||
G||------------------------||
D||--9---------------------||
A||--7-----10-----5------9-||
E||--------8------3------7-||


e||-------------------------------------------------------------------||
B||-------------------------------------------------------------------||
G||------------------------------------6------------------6-4---------||
D||----7-------------------------------------7-----6----------7-6-4---||
A||----------8-----7-----8----10---------444---444---444------------7-||
E||------555---555---555---55-----------------------------------------||


e||----------------------------------------------------------------------------------------------||
B||----------------------------------------------------------------------------------------------||
G||---------------------7-7-------------------9-9------------------------------------------------||
D||-10---9-------7-9-10--------10------9-10-12------------12--------10-12-9----10-----10--9------||
A||---000-000000------------888--888888-------------101010---101010--------888----888---00-00-10-||
E||----------------------------------------------------------------------------------------------||

e||-------------------------------||
B||-------------------------------||
G||-------------------------------||
D||--------------------------5--4-||
A||----7------2----3---5-----3--2-||
E||----5------0----1---3----------||

tremolo picking
e||--------------------------------------------||
B||--------------------------------------------||
G||---------------------------9-7t9p7----------||
D||----7---10-7----7-9------7---------10-9-7-9-||
A||-------------10--------8--------------------||
E||--------------------------------------------||
Добавлено: 26.08.2013
Другие материалы по этой песне:
  • Аккорды и текст

Страница создана 26.08.2013
http://primanota.ru/dark-fortress/through-the-ages-of-war-chords.htm
Привет, Гость.
Предлагаем пройти революционный курс по гитаре.
Подарок от PrimaNota.Ru, забирай!